Oops, an error
Loading. Please wait.

Exogenesis Part 1 Overture Tab

version 1
version 1

Solo

  • Slightly semplified and modified the [Bridge] (com... Show more

Interactive

by Muse
34 views 1 this week
no commentswrite comment
1 2 3 4 5
3 more votes to show rating
add to favorites
launch autoscroll
font size
0
reset
how to read this tab
guitar tuner
Autoscroll
slow
fast
+/-
esc
set tempo
stop
Help us to improve Ultimate-Guitar.com Take our survey!
×
Author
Difficulty
Tuning
novice
D A D G B E
About this tab version
Slightly semplified and modified the [Bridge] (compared to the original studio version). Was this info helpful? Yes No
| Song:
| 
|   Name:       Exogenesis Symphony Part 1 Overture
|   Author:     Muse
|   Language:   English
|   Tempo:      6/8 (~240 BPM)
|   
|   Tuning:     Drop D ( D A D G B e )
|   Difficulty: Novice
|   Capo:       No capo
| 



02:53 [Solo]

e||------------------|------------------|------------------|
B||------------------|------------------|------------------|
G||------------------|------------------|------------------|
D||------------------|------------------|------------------|
A||------------------|------------------|------------------|
D||-0----------------|-3~-------6~------|-7~-------7--7--7-|



e||------------------|------------------|------------------|
B||------------------|------------------|------------------|
G||------------------|------------------|------------------|
D||-7--7--7--7--7--7-|-7--7--7-/8~------|-8--0--0-/12~-----|
A||------------------|------------------|------------------|
D||-7--7--7--7--7--7-|------------------|------------------|



e||------------------|------------------|
B||------------------|------------------|
G||------------------|------------------|
D||-11~------8~------|\7~---------------|
A||------------------|------------------|
D||------------------|------------------|



03:12 [Solo Bridge]

e||------------------|------------------------------------|
B||------------------|------------------------------------|
G||------------------|-------------2--3--/6~--------------|
D||------------------|-0--2--3--2-------------------------|
A||------------------|------------------------------------|
D||------------------|------------------------------------|


    TP                 TP                 TP
e||-----------------||-----------------||-----------------|
B||-13--------------||-11--------------||-10br-br---------|
G||-----------------||-----------------||-----------------|
D||-----------------||-----------------||-----------------|
A||-----------------||-----------------||-----------------|
D||-----------------||-----------------||-----------------|


    TP
e||-----------------||------------------------------------|
B||-8---------------||------------------------------------|
G||-----------------||------------------------------------|
D||-----------------||------------------------------------|
A||-----------------||------------------------------------|
D||-----------------||--5-5---5-5---5-5---6-6---6-6---6-6-|



03:42 [Solo Ending]

e||------------------||-----------------||-----------------||-----------------||-----------------|
B||------------------||-----------------||-----------------||-----------------||-----------------|
G||------------------||-----------------||-----------------||-----------------||-----------------|
D||------------------||-----------------||-----------------||-----------------||-----------------|
A||------------------||-----------------||-----------------||-----------------||-----------------|
D||-7~~--------------||-7~~-------------||-8~~-------------||-11~~------------||-12~~------------|




************************************

 /      Slide up
 \      Slide down
 ~      Vibratio
 TP     Tremolo Picking
 b      Bend
 br     Bend Release

************************************
Suggest correction
Give kudos to tab author, rate the tab!
1 2 3 4 5
comments
print report bad tab
guest
You may want to rate the tab now too:
select rating
Wanna post a correction for this tab? Suggest correction