Oops, an error
Loading. Please wait.

Exogenesis Symphony Part 1 Overture Bass Tab

version 1
version 1

Whole song

Interactive

by Muse
3,033 views 3 this week
no commentswrite comment
1 2 3 4 5
accurate
x 4
add to favorites
launch autoscroll
font size
0
reset
guitar tuner
Tab Pro tools
  • play this tab
  • loop segment
  • change instrument
  • show fretboard
  • metronome
×
Best way to learn
"Exogenesis Symphony Part 1 Overture"
Autoscroll
slow
fast
+/-
esc
set tempo
stop
Contributor
Difficulty
Tuning
novice
D A D G B E
Band: Muse
Song: Exogenesis: Part 1: Overture
Album: The Resistance (2009)
Bassist: Chris Wolstenholme
Tuning: Dropped D

No bass till 0:30. This part is probably on upright bass or smth.

G|---------------------------------------------------------|
D|---------------------------------------------------------|
A|---------4~--3~----------4~--3~--------------------------|
D|7~--4~-----------7~--4~----------3~------7~----3~--------|

Here's electric bass.

G|------------------------|                                         
D|------------------------|                                         
A|0(x48)--1(x24)--4(x24)--|                                         
D|------------------------|                                      
                                                                
G|----------------------------------------------------------------| 
D|----------------------------------------------------------------| 
A|5(x24)--0(x24)------------------3(x24)----------3(x24)----------| 
D|----------------5(x24)--0(x24)----------5(x24)----------5(x24)--| 
                                                                    
G|------------------------|                                         
D|------------------------|                                         
A|0(x48)--1(x24)--4(x24)--|                                         
D|------------------------|                                         
       
G|----------------------------------------------------------------| 
D|----------------------------------------------------------------| 
A|5(x24)--0(x24)------------------3(x24)----------3(x24)----------| 
D|----------------5(x24)--0(x24)----------5(x24)----------5(x24)--| 
                                                                    
G|------------------------|                                         
D|------------------------|                                         
A|0(x48)--1(x24)--4~------|  You can play those other four's                                     
D|------------------------|           if you want.                        
                                            
G|------------|                                         
D|------------|                                        
A|------------|                                         
D|0~----------|

Please rate and check out other MUSE tabs tabbed by me.                                        

/  slide up
\  slide down
h  hammer-on
p  pull-off
~  let ring
comments
print report bad tab
I want to post or [tab]
guest
You may want to rate the tab now too:
select rating
Please do not post tabs as comments. Select "correction" instead!