Oops, an error
Loading. Please wait.

Exogenesis Symphony Part 1 Overture solo tab

version 2
version 2

Solo

Whole song

Interactive

by Muse
11,649 views 1 this week
2 commentsread comments
1 2 3 4 5
1 last vote to show rating
add to favorites
×
Save as Personal and add changes to this tab that will be seen only by you. Learn more ›
×
You can save this tab as Personal to edit and correct it or add notes. All changes will be seen only by you. Learn more »
launch autoscroll
font size
0
reset
how to read this tab
guitar tuner
edit
Autoscroll
slow
fast
+/-
esc
set tempo
stop
Matt Bellamy, MUSE
Exogenesis, Symphony Part 1: Overture

Guitar #1 - Solo, Outro
Slightly Distorted/Crunch Amp(Higher Mid's) + Slight Tube Screamer OR Fuzz
LOTS of reverb and echo
Bridge pickup, preferably a hot pickup

Transcribed by DSpek

===========================================================

Tempo: 80bpm

     W                   H         H          
E||-------------------|----------------------|
B||-------------------|----------------------|
G||-------------------|----------------------|
D||-------------------|----------------------|
A||-------------------|----------------------|
D||--0----------------|--3~--------6~--------|


  Q.      T T T T T T T T T T T T T T T T T T T T  
--------------------------------------------------|
--------------------------------------------------|
--------------------------------------------------|
----------------------------------7-7-7-7-7-7-7-7-|
--------------------------------------------------|
--7~------7-7-7-7-7-7-7-7-7-7-7-7-7-7-7-7-7-7-7-7-|


   3       |-3-|     |---3---|   |-3-|                                 
   Q.      E   Q     E   E   E   E   Q         Q     Q     Q     Q     
------------------------------------------|---------------------------|
--10------10--10----10--10--10--10--10----|--/11----11----11----11----|
------------------------------------------|---------------------------|
---7-------7---7-----7---7---7---7---7----|----8-----8-----8-----8----|
------------------------------------------|---------------------------|
---7-------7---7-----7---7---7---7---7----|---------------------------|


                           |--3--|  3                   3    
   H          H            E  E  E  W                   E    
------------------------|-----------------------------------|
------------------------|-----------------------------------|
--/7~--------/6~--------|--3--2--2--2~----------------<>2~--|
------------------------|-----------------------------------|
------------------------|-----------------------------------|
------------------------|-----------------------------------|


                                          TP        TP        
  3      |--3--|  |--3--|  |---3---|                          
  Q.     E  E  E  E  E  E  E   E   E      H         H         
--------------------------------------|----------------------|
------------------------------10--12--|--13--------13--------| <- TREMOLO PICK THESE HIGH NOTES
--L-----------------------------------|----------------------|
--------------------------------------|----------------------|
--------------------------------------|----------------------|
---------0-----2-----3-----6----------|----------------------|


   TP        TP           TP  TP  TP             TP        
                          |---3---|   |---3--|             
   H         H            E   E   E   Q      E   H         
----------------------|-----------------------------------|
--13--------13--------|--13--13--13--13s----11--11--------| <- TREMOLO PICK ALL OF THESE ASWELL
----------------------|-----------------------------------|
----------------------|-----------------------------------|
----------------------|-----------------------------------|
----------------------|-----------------------------------|


   TP        TP  TP  TP                   TP     TP          TP                
             |---3---|   |---3--|                                              
   H         E   E   E   Q      E      E  Q.     H           W                 
------------------------------------|---------------------|-------------------|
--11--------11--11--11--11s----10s--|--8--8------8--------|--8----------------| <- and again...
------------------------------------|---------------------|-------------------|
------------------------------------|---------------------|-------------------|
------------------------------------|---------------------|-------------------|
------------------------------------|---------------------|-------------------|


  TP                  \4/                                    
  W                   W                   W                  
-------------------|-------------------|--------------------|
--8----------------|-------------------|--------------------| <- and again... lmao
-------------------|-------------------|--------------------|
-------------------|-------------------|--------------------|
-------------------|--0----------------|--------------------| <- Play the 0, 
-------------------|-------------------|--7~----------------| <- and drop the whammy bar 4 whole
 notes down, and slowly bring it back up to this 7~


  W                   W                    W                 
-------------------|--------------------|-------------------|
-------------------|--------------------|-------------------|
-------------------|--------------------|-------------------|
-------------------|--------------------|-------------------|
-------------------|--------------------|-------------------|
--L----------------|--7~----------------|--L----------------|


  W                    W                    W                  
--------------------|-------------------|---------------------|
--------------------|-------------------|---------------------|
--------------------|-------------------|---------------------|
--------------------|-------------------|---------------------|
--------------------|-------------------|---------------------|
--8~----------------|--L----------------|--11~----------------|


  W                   W                  
-------------------|-------------------||
-------------------|-------------------||
-------------------|-------------------||
-------------------|-------------------||
-------------------|-------------------||
--L----------------|--0----------------||




Duration Legend
---------------
W - whole
H - half
Q - quarter
E - 8th
S - 16th
T - 32nd
X - 64th
. - note dotted
|-n-|  - n-tuplets


Tablature Legend
----------------
L - tied note
x - dead note
g - grace note
(n) - ghost note
> - accentuded note
NH - natural harmonic
AH - artificial harmonic
TH - tapped harmonic
SH - semi harmonic
PH - pitch harmonic
h - hammer on
p - pull off
b - bend
br - bendRelease
pb - preBend
pbr - preBendRelease
brb - bendReleaseBend
\n/ - tremolo bar dip
\n - tremolo bar dive
-/n - tremolo bar Release up
/n\ - tremolo bar inverted dip
/n - tremolo bar return
-\n - tremolo bar Release down
S - shift slide
s - legato slide
/ -  slide into from below or out of upwards
\ -  slide into from above or out of downwards
~ - vibrato
W - wide vibrato
tr - trill
TP - tremolo picking
T - tapping
S - slap
P - pop
< - fade in
^ - brush up
v - brush down

            
            
Suggest correction
Creating personal tab
Creating personal tab
You can edit any tab online and save it as your Personal.

You can edit, replace or remove any tab part or add personal notes – all changes will be seen only by you.

Personal tabs can be accessed anytime from any device, even offline.
Learn more »
Give kudos to tab author, rate the tab!
1 2 3 4 5
comments
print report bad tab
2 comments total.
0 reply
sponboy666 10 Jan 26, 2010 01:46 PM

There are only 3 parts I would change:

bar 7 should be,
D|--3--L--2--2~----------------2~--|

bar 8,
PM------------------|
E|-----------------------------------|
B|---------------------------10-12---|
G|-----------------------------------|
D|--------------------7-0-7----------|
A|------------0-5-7-8----------------|
D|-----------------------------------|

and the last bar of the outro,
E|-----------------------------------|
B|-----------------------------------|
G|-----------------------------------|
D|----0------------------------------|
A|----0------------------------------|
D|----12~----------------------------|

Hope this helps :)

0 reply
dspek 109 Jul 20, 2010 09:15 AM

ahh thank you very much

guest
You may want to rate the tab now too:
select rating
Wanna post a correction for this tab? Suggest correction