Oops, an error
Loading. Please wait.

Exogenesis Symphony Part 2 Cross-Pollination Bass Tab

by Muse
2,616 views 3 this week
1 commentread comment
1 2 3 4 5
excellent!
x 5
add to favorites
launch autoscroll
font size
0
reset
guitar tuner
Tab Pro tools
  • play this tab
  • loop segment
  • change instrument
  • show fretboard
  • metronome
Autoscroll
slow
fast
+/-
esc
set tempo
stop
Contributor
Difficulty
novice
Band: Muse
Song: Exogenesis: Part 2: Cross-Pollination
Album: The Resistance (2009)
Bassist: Chris Wolstenholme
Tuning: Standard

No bass till [0:56]

G|----------|
D|----------|
A|8~--------| 
E|----------| 

I think that these are double bass notes but I'm not sure
Play this part softly [1:04]

G|--------------------------------------------------------------------|
D|--------------------------------------------------------------------|
A|8~---6~---7~---8~---8~---10~---------8~---11~---------11~-----------|
E|-------------------------------8~----------------0~---------0~------|

Fade in (electric bass):

G|----------|
D|----------|
A|3(x32)----|
E|----------|

G|------------------|------------------|
D|------------------|------------------|
A|333-3-33-333-3-33-|---------333-3-33-|
E|------------------|333-3-33----------|

G|------------------|------------------|
D|333-3-33----------|------------------|
A|---------333-3-33-|------------------|
E|------------------|333-3-33-333-3333-|

G|------------------|------------------|
D|------------------|------------------|
A|333-3-33-333-3-33-|---------333-3-33-|
E|------------------|333-3-33----------|

G|------------------|------------------|
D|333-3-33----------|------------------|
A|---------333-3-33-|------------------|
E|------------------|333-3-33-333-\111-|

G|----8--8-----8--8-|-------------8--8-|
D|------------------|------------------|
A|666---6--666---6--|---------666---6--|
E|------------------|666-6-66----------|

G|-------------8--8\|------------------|
D|666-6-66----------|------------------|
A|---------666---6--|------------------|
E|------------------|333-3-33-33331111-|

G|----8--8-----8--8-|-------------8--8-|
D|------------------|------------------|
A|666---6--666---6--|---------666---6--|
E|------------------|666-6-66----------|

G|-------------8--8\|--------------------------|
D|666-6-66----------|--------------------------|
A|---------666---6--|---------------------3~---|
E|------------------|333-3-33-333\1-1-1--------|

Didn't hear bass but here's tab if You Want to play song till
the end along with piano. There are some timings for A string notes
to make this easier. Optional outro:

 [2:55]         [3:05]                   [3:21]       [3:35]   
G|----------------------------------------------------------------------|
D|----------------------------------------------------------------------|
A|3~-------------3~-----------------------3~-------6~--5~--------3~-----|
E|-----4~---1~--------4~--------4~---1~---------------------------------|

Hope that You'll find this tab useful. Please rate and check out other
MUSE tabs made by me.

/  slide up
\  slide down
h  hammer-on
p  pull-off
~  let ring
comments
print report bad tab
1 comment total.
0 reply
Johayn wrote on August 24 2010, 12:44 pm

Great tab. Seems to fit perfectly for the song.
Too bad no ones rated it yes - but I'll give it 5 stars!

I want to post or [tab]
guest
You may want to rate the tab now too:
select rating
Please do not post tabs as comments. Select "correction" instead!