Oops, an error
Loading. Please wait.

Explorers Bass

version 1
version 1

Whole song

Interactive

by Muse
15,127 views 12 this week
3 commentsread comments
1 2 3 4 5
x 18
add to favorites
×
Save as Personal and add changes to this tab that will be seen only by you. Learn more ›
×
You can save this tab as Personal to edit and correct it or add notes. All changes will be seen only by you. Learn more »
save as personal
new!
launch autoscroll
font size
0
reset
guitar tuner
Autoscroll
slow
fast
+/-
esc
set tempo
stop
Author
Difficulty
novice
Band: Muse
Song: Explorers
Album: The 2nd Law (2012)
Bassist: Chris Wolstenholme
Tuning: Standard   
  
"br" means bend & release.

Verse: [0:44]
                       br           br       
G|---------------17----21--17-------21--17-------|
D|---------14-17--------------18-----------16----|
A|15----17---------------------------------br----|
E|-----------------------------------------------|

G|------------br---------------------------------|
D|---14-15----14-------13-\----10-12~------------|
A|17-------------15---------10-------------------|
E|-----------------------------------------------|

Pre-chorus and Chorus:

G|-----------------------------------------------------------------|
D|-----------------------------------------------------------------|
A|---------------7(x8)--8(x8)--5(x8)-------------------------------|
E|8(x40)--5(x8)-----------------------3(x8)--4(x8)--5(x16)--7(x8)--|

Post-chorus:

G|-----------17----------19--------16-13-------------------|
D|----/14-17-------16-19-----------------15-12-------------|
A|---------------------------------------------14-11-------|
E|8--------------------------------------------------13-10-|

Verse:

G|----------------|----------------|----------------|----------------|
D|----------------|----------------|----------------|----------------|
A|----------------|----------------|----------------|8-----8--8------|
E|8-----8--8------|8-----8--8------|8-----8--8------|----------------|

G|----------------|----------------|----------------|----------------|
D|----------------|----------------|----------------|----------------|
A|11----11--11----|----------------|----------------|8-----8--8------|
E|----------------|8-----8--8------|10----10--10----|----------------|

G|----------------|----------------|----------------|-----------------------|
D|----------------|----------------|----------------|-----------------------|
A|----------------|----------------|8-----8--8------|8----------10-10-10-10-|
E|8-----8--8------|11----11--11----|----------------|-----------------------|

G|--------------------------------------------------------------------------|
D|--------------------------------------------------------------------------|
A|-------8(x8)--11(x8)----------------8(x8)----------------8(x12)-10-10-10\-|
E|8(x24)----------------8(x8)--10(x8)--------8(x8)--11(x8)------------------|

Chorus:

G|----------------|----------------|----------------|----------------|
D|----------------|----------------|----------------|----------------|
A|3--3----3-3-3---|----------------|7--7----7-7-7---|8--8----8-8-8---|
E|------3-------3-|5--5--0-5-5-5-0-|------7-------7-|------8-------8-|

G|----------------|----------------|----------------|----------------|
D|----------------|5--5----5-5-5---|6--6----6-6-6---|7--7----7-7-7---|
A|5--5----5-5-5---|------5-------5-|------6-------7-|------7-------7-|
E|------5-------5-|----------------|----------------|----------------|

G|----------------|----------------|
D|7--7----7-7-7---|9--9----9-9-9-9-|
A|------7-------8-|------9---------|
E|----------------|----------------|

Interlude:

G|-------------------------------------------------------------------------|
D|-------------------------------------------------------------------------|
A|------5(x8)-------7(x8)--8(x8)-------5(x8)-------------------------------|
E|5(x8)-------3(x8)--------------5(x8)-------6(x8)--8(x8)--5(x12)--9-99999-|

Chorus:

G|----------------|----------------|----------------|----------------|
D|----------------|----------------|4--4----4-4-4---|5--5----5-5-5---|
A|5--5----5-5-5---|2--2----2-2-2---|------4-------4-|------5-------5-|
E|------5-------5-|------2-------2-|----------------|----------------|

G|----------------|----------------|----------------|----------------|
D|2--2----2-2-2---|----------------|----------------|----------------|
A|------2-------2-|----------------|1--1----1-1-1---|2--2----2-2-2---|
E|----------------|5--5--0-5-5-5-0-|------1-------2-|------2-------2-|

G|----------------|----------------|----------------|----------------|
D|----------------|----------------|----------------|------------2-3-|
A|2--2----2-2-2---|4--4----4-444444|5-5-5-5-5-5-5-4-|2-2-2-2-2-2-----|
E|------2-------2-|------4---------|----------------|----------------|

G|----------------|----------------|----------------|----------------|
D|4-4-4-4-4-4-2-4-|5-5-5-5-5-5-5-4-|2-2-2-2-2-2-2---|----------------|
A|----------------|----------------|--------------2-|----------------|
E|----------------|----------------|----------------|5-5-5-5-5-5-4-5-|

G|----------------|----------------|----------------|----------------|
D|----------------|----------------|----------------|----------------|
A|----------------|----------------|----------------|----------------|
E|6-6-6-6-6-6-4-6-|7-7-7-7-7-7-7-7-|7-7-7-7-7-7-5-7-|9-9-9-9-9-9-7-9-|

Ending:
                       br           br
G|---------------19----23--19-------23--19-------|
D|---------16-19--------------20-----------18----|
A|-----/19---------------------------------br----|
E|10~--------------------------------------------|

G|------------br-----------------------------------------------------|
D|---16-17----16-------15--\---12-14----------0~---------------------|
A|19-------------17---------12---------------------------------------|
E|-------------------------------------------------------------------|

br  bend-release
()  ghost note
/   slide up
\   slide down
h   hammer-on
p   pull-off
~  let ring
Suggest correction
comments
print report bad tab
3 comments total.
0 reply
MisterMcDerp 38 Mar 15, 2015 12:12 PM

excellent. just one thing. for the first pre chorus and chorus, you don't play it 40 times. pretty sure its just 32. other than that, it's perfect.

guest
You may want to rate the tab now too:
select rating
Wanna post a correction for this tab? Suggest correction