Oops, an error
Loading. Please wait.

Falling Away With You Tab

version 1
version 1

Whole song

Interactive

by Muse
211,927 views 222 this week
10 commentsread comments
1 2 3 4 5
excellent!
x 43
add to favorites
launch autoscroll
font size
0
reset
how to read this tab
guitar tuner
Autoscroll
slow
fast
+/-
esc
set tempo
stop
Help us to improve Ultimate-Guitar.com Take our survey!
×
Author
Muse - Falling away with you
Tabbed by Matt Rickwood

e|---------------------------------------------------------|
B|--5--6--8--13--13-----12---12--12-----10------10------10-|
G|---------------------------------------------------------|
D|---------------------------------------------------------|
A|--3--5--7/-12----12--------10-----10---8---8---8---8---8-|
E|---------------------------------------------------------|


e|--------------------------------------------------------|
B|--8--6--5---5----------------------------5--------------|
G|----------------4-------4-------5------------5---9---7--|
D|--------------------------------------------------------|
A|--7--5--3-----------------------------------------------|
E|----------------3-------4---4---5-----5----------8---7--|


e|--------1-----------------------|
B|------------1---1--------3/5----|
G|--2---------2---1-------------0-|
D|--3-----------------------------|
A|------------------------------3-|
E|--------1-----------1---1-------|


e|---------------------------------------------------------|
B|--5-----------5---6---8---13---13------12---12--------10-|
G|---------------------------------------------------------|
D|---------------------------------------------------------|
A|------3---3---3---5---7---12------12---10--------10---8--|
E|---------------------------------------------------------|


e|---------------------------------------------------------|
B|--10-----------10---8---6---5-----5----------------------|
G|--------------------------------------4-----4-------5----|
D|---------------------------------------------------------|
A|-------8---8---8----7---5---3-----3----------------------|
E|--------------------------------------3-----4---4---5----|


e|--------------------------------1------------------------|
B|------5-----------------------------1-----------3/-5-----|
G|----------9---7---5---2-----------------1---1----------0-|
D|---------------------------------------------------------|
A|---------------------------------------------------------|
E|--5-------8---7---5---1-----1---------------1------------|

e|----------------------------------------------------------|
B|------5-----------5---6---8/--13---13------12---12-----10-|
G|----------------------------------------------------------|
D|----------------------------------------------------------|
A|--3-------3---3---3---5---7/--12------12---10------10--8--|
E|----------------------------------------------------------|


e|---------------------------------------------------------|
B|--10---10---10---10---8---6---5----5---------------------|
G|---------------------------------------4----4-------5----|
D|---------------------------------------------------------|
A|-------8----8----8----7---5---3----3---------------------|
E|---------------------------------------3----4---4---5----|


e|----------------------------------------1----------------|
B|-----------5-------9-----7---5---2---------1-----3/--5---|
G|----------------------------------------------1----------|
D|---------------------------------------------------------|
A|-------------------------------------------------------3-|
E|--5---5--------5/--8-----7---5---1---1--1--1--1--1-------|


e|---------------------------------------------------------|
B|------5----------5/--6/--8---13---13--------12---12---10-|
G|--0----------0-------------------------------------------|
D|---------------------------------------------------------|
A|---------3-------3---5/--7---12---12---12---10---10---8--|
E|---------------------------------------------------------|


e|---------------------------------------------------------|
B|--10---10---10---10---10---8---6---5---5-----------------|
G|-------------------------------------------4----4---5----|
D|---------------------------------------------------------|
A|--8----8----8----8----8----7---5---3---3-----------------|
E|-------------------------------------------3----4---5----|


e|-------------------------------1-------------------------|
B|--5--5-----------------------------1---------------------|
G|-----5------9---7---5---2--------------1---1---3/--5-----|
D|---------------------------------------------------------|
A|---------------------------------------------------------|
E|--------5/--8---7---5------1---------------1---1-------8-|

e|----------------------------------1-----------------------|
B|-----5--------------------------------1-----------3/5-----|
G|---------0-------9---7---5---2------------1---1-----------|
D|----------------------------------------------------------|
A|--3----------3------------------------------------------2-|
E|-----------------8---7---5---1----------------1---------0-|


e|--0----------------------------------------0-------------|
B|--0----------------------------------------0-------------|
G|--1----------------------------------------0-------------|
D|--2----------------------------------------0-------------|
A|--2------------------------------------------------------|
E|--0------------------------------------------------------|


e|------------------------------------------------|
B|------------------------------------------------|
G|-----------------------5-----5-----5-----5------|
D|----5---5--2--0-----------7-----6-----6---------|
A|--3---3----------3--8-----8-----8-----8-----2---|
E|--------------------------------------------0---|


-----------------------------|
-----------------------------|
-----------------------------|
--2---2---2---2---2---2---2--|
--0---0---0---0---0---0---0--|


e|--7--7--7--7--7--7--7----7--7--7--7--7--7--7--|
B|--6--6--6--6--6--6--6----6--6--6--6--6--6--6--|
G|--7--7--7--7--7--7--7----7--7--7--7--7--7--7--|
D|--7--7--7--7--7--7--7----7--7--7--7--7--7--7--|
A|--0--0--0--0--0--0--0----0--0--0--0--0--0--0--|
E|----------------------------------------------|

e|--7--7--7--5--5--5--5----7--7--7--7--7--7--7--|
B|--5--5--5--5--5--5--5----5--5--5--5--5--5--5--|
G|--6--6--6--6--6--6--6----6--6--6--6--6--6--6--|
D|--7--7--7--7--7--7--7----7--7--7--7--7--7--7--|
A|--0--0--0--0--0--0--0----0--0--0--0--0--0--0--|
E|----------------------------------------------|



e|--7--7--7--7--7--7--7----7--7--7--7--7--7--7--|
B|--6--6--6--6--6--6--6----6--6--6--6--6--6--6--|
G|--7--7--7--7--7--7--7----7--7--7--7--7--7--7--|
D|--7--7--7--7--7--7--7----7--7--7--7--7--7--7--|
A|--0--0--0--0--0--0--0----0--0--0--0--0--0--0--|
E|----------------------------------------------|

e|--7--7--7--7--7--7--7----7--7--7--7--7--7--7--|
B|--6--6--6--6--6--6--6----6--6--6--6--6--6--6--|
G|--7--7--7--7--7--7--7----7--7--7--7--7--7--7--|
D|--7--7--7--7--7--7--7----7--7--7--7--7--7--7--|
A|--0--0--0--0--0--0--0----0--0--0--0--0--0--0--|
E|----------------------------------------------|


e|--7--7--7--7--7--7--7----7--7--7--7--7--7--7--|
B|--5--5--5--5--5--5--5----5--5--5--5--5--5--5--|
G|--6--6--6--6--6--6--6----6--6--6--6--6--6--6--|
D|--7--7--7--7--7--7--7----7--7--7--7--7--7--7--|
A|--0--0--0--0--0--0--0----0--0--0--0--0--0--0--|
E|----------------------------------------------|


e|--5--5--5--5--5--5--5----7--7--7--7--7--7--7--|
B|--5--5--5--5--5--5--5----5--5--5--5--5--5--5--|
G|--6--6--6--6--6--6--6----6--6--6--6--6--6--6--|
D|--7--7--7--7--7--7--7----7--7--7--7--7--7--7--|
A|--0--0--0--0--0--0--0----0--0--0--0--0--0--0--|
E|----------------------------------------------|


e|--7--7--7--7--7--7--7----7--7--7--7--7--7--7--|
B|--6--6--6--6--6--6--6----6--6--6--6--6--6--6--|
G|--7--7--7--7--7--7--7----7--7--7--7--7--7--7--|
D|--7--7--7--7--7--7--7----7--7--7--7--7--7--7--|
A|--0--0--0--0--0--0--0----0--0--0--0--0--0-----|
E|----------------------------------------------|


e|--7--7--7--7--7--7--7----7--7--7--7--7--7--7--|
B|--6--6--6--6--6--6--6----6--6--6--6--6--6--6--|
G|--7--7--7--7--7--7--7----7--7--7--7--7--7--7--|
D|--7--7--7--7--7--7--7----7--7--7--7--7--7--7--|
A|--0--0--0--0--0--0--0----0--0--0--0--0--0--0--|
E|----------------------------------------------|


e|--7--7--7--7--7--7--7----7--7--7--7--7--7--7--|
B|--5--5--5--5--5--5--5----5--5--5--5--5--5--5--|
G|--6--6--6--6--6--6--6----6--6--6--6--6--6--6--|
D|--7--7--7--7--7--7--7----7--7--7--7--7--7--7--|
A|--0--0--0--0--0--0--0----0--0--0--0--0--0--0--|
E|----------------------------------------------|


e|--7--7--7--7--7--7--7----7--7--7--7--7--7--7--|
B|--5--5--5--5--5--5--5----5--5--5--5--5--5--5--|
G|--6--6--6--6--6--6--6----6--6--6--6--6--6--6--|
D|--7--7--7--7--7--7--7----7--7--7--7--7--7--7--|
A|--0--0--0--0--0--0--0----0--0--0--0--0--0--0--|
E|----------------------------------------------|


e|--7--7--7--7--7--7--7----7--7--7--7--7--7--7--|
B|--6--6--6--6--6--6--6----6--6--6--6--6--6--6--|
G|--7--7--7--7--7--7--7----7--7--7--7--7--7--7--|
D|--7--7--7--7--7--7--7----7--7--7--7--7--7--7--|
A|--0--0--0--0--0--0--0----0--0--0--0--0--0--0--|
E|----------------------------------------------|

e|--8--8--8--8--8--8--8----8--8--8--8--8--8--8--|
B|--6--6--6--6--6--6--6----6--6--6--6--6--6--6--|
G|--7--7--7--7--7--7--7----7--7--7--7--7--7--7--|
D|--7--7--7--7--7--7--7----7--7--7--7--7--7--7--|
A|--0--0--0--0--0--0--0----0--0--0--0--0--0--0--|
E|----------------------------------------------|


e|--9--9--9--9--9--9--9----9--9--9--9--9--9--9--|
B|--10-10-10-10-10-10-10---10-10-10-10-10-10-10-|
G|--9--9--9--9--9--9--9----9--9--9--9--9--9--9--|
D|--11-11-11-11-11-11-11---11-11-11-11-11-11-11-|
A|--0--0--0--0--0--0--0----0--0--0--0--0--0--0--|
E|----------------------------------------------|


e|--9--9--9--9--9--9--9----9--9--9--9--9--9--9--|
B|--10-10-10-10-10-10-10---10-10-10-10-10-10-10-|
G|--9--9--9--9--9--9--9----9--9--9--9--9--9--9--|
D|--11-11-11-11-11-11-11---11-11-11-11-11-11-11-|
A|--0--0--0--0--0--0--0----0--0--0--0--0--0--0--|
E|----------------------------------------------|

e|--8--8--8--8--8--8--8----8--8--8--8--8--8--8--|
B|--10-10-10-10-10-10-10---10-10-10-10-10-10-10-|
G|--9--9--9--9--9--9--9----9--9--9--9--9--9--9--|
D|--10-10-10-10-10-10-10---10-10-10-10-10-10-10-|
A|--0--0--0--0--0--0--0----0--0--0--0--0--0--0--|
E|----------------------------------------------|


e|--8--8--8--8--8--8--8----8--8--8--8--8--8--8--|
B|--10-10-10-10-10-10-10---10-10-10-10-10-10-10-|
G|--9--9--9--9--9--9--9----9--9--9--9--9--9--9--|
D|--10-10-10-10-10-10-10---10-10-10-10-10-10-10-|
A|--0--0--0--0--0--0--0----0--0--0--0--0--0--0--|
E|----------------------------------------------|


e|--8--8--8--8--8--8--8----8--8--8--8--8--8--8--|
B|--10-10-10-10-10-10-10---10-10-10-10-10-10-10-|
G|--10-10-10-10-10-10-10---10-10-10-10-10-10-10-|
D|--10-10-10-10-10-10-10---10-10-10-10-10-10-10-|
A|--0--0--0--0--0--0--0----0--0--0--0--0--0--0--|
E|----------------------------------------------|


e|--8--8--8--8--8--8--8----8--8--8--8--8--8--8--|
B|--10-10-10-10-10-10-10---10-10-10-10-10-10-10-|
G|--10-10-10-10-10-10-10---10-10-10-10-10-10-10-|
D|--10-10-10-10-10-10-10---10-10-10-10-10-10-10-|
A|--0--0--0--0--0--0--0----0--0--0--0--0--0--0--|
E|----------------------------------------------|


e|--10-10-10-10-10-10-10---10-10-10-10-10-10-10-|
B|--12-12-12-12-12-12-12---12-12-12-12-12-12-12-|
G|--10-10-10-10-10-10-10---10-10-10-10-10-10-10-|
D|--12-12-12-12-12-12-12---12-12-12-12-12-12-12-|
A|--10-10-10-10-10-10-10---10-10-10-10-10-10-10-|
E|----------------------------------------------|


e|--10-10-10-10-10-10-10---10-10-10-10-10-10-10-|
B|--12-12-12-12-12-12-12---12-12-12-12-12-12-12-|
G|--10-10-10-10-10-10-10---10-10-10-10-10-10-10-|
D|--12-12-12-12-12-12-12---12-12-12-12-12-12-12-|
A|--10-10-10-10-10-10-10---10-10-10-10-10-10-10-|
E|----------------------------------------------|

e|--8--8--8--8--8--8--8----8--8--8--8--8--8--8--|
B|--8--8--8--8--8--8--8----8--8--8--8--8--8--8--|
G|--9--9--9--9--9--9--9----9--9--9--9--9--9--9--|
D|--10-10-10-10-10-10-10---10-10-10-10-10-10-10-|
A|--10-10-10-10-10-10-10---10-10-10-10-10-10-10-|
E|--8--8--8--8--8--8--8----8--8--8--8--8--8--8--|

e|--8--8----------------------------------------|
B|--8--8----------------------------------------|
G|--9--9----------------------------------------|
D|--10-10---------------------2---3---5---10----|
A|--10-10---------------------3---5---7---12----|
E|--8--8----------------------------------------|


e|----------------------------------------------------|
B|----------------------------------------------------|
G|----------------------------------------------------|
D|--10--10--10--9---9---9---9---7---7---7---7---7---7-|
A|--12--12--12--10--10--10--10--8---8---8---8---8---8-|
E|----------------------------------------------------|


e|----------------------------------------------------------|
B|----------------------------------------------------------|
G|----------------------------------------------------------|
D|--5---3---2---2---2---2------2-----2------2---2---2-0-----|
A|--7---5---3---3---3---3--2------2-----3-----3---3-----3-8-|
E|-------------------------3------4-----5-------------------|


e|---------------------------------------------------|
B|---------------------------------------------------|
G|--5------5-----5----5------------------------------|
D|-----7------6----6-----5-----5-----5--2--3--5--10--|
A|-----8------8----8--------3-----3-----3--5--7--12--|
E|---------------------------------------------------|


e|--8--8--8--8--8--8--8----8--8--8--8--8--8--8--|
B|--8--8--8--8--8--8--8----8--8--8--8--8--8--8--|
G|--9--9--9--9--9--9--9----9--9--9--9--9--9--9--|
D|--10-10-10-10-10-10-10---10-10-10-10-10-10-10-|
A|----------------------------------------------|
E|----------------------------------------------|


e|--8--8--8--8--8--8--8----8--8--8--8--8--8--8--|
B|--8--8--8--8--8--8--8----8--8--8--8--8--8--8--|
G|--9--9--9--9--9--9--9----9--9--9--9--9--9--9--|
D|--10-10-10-10-10-10-10---10-10-10-10-10-10-10-|
A|----------------------------------------------|
E|----------------------------------------------|


e|--8-----------------------------------------|
B|--8-----------------------5----6----8---10--|
G|--9-----------------------------------------|
D|--10----------------------------------------|
A|--------------------------3----5----7---12--|
E|--------------------------------------------|


e|---------------------------------------------|
B|--10--12---12--10-------10-----10--8---6---5-|
G|---------------------------------------------|
D|---------------------------------------------|
A|--12--10---10---8-----8----8---8---7---5---3-|
E|---------------------------------------------|

e|--------------------------------------------|
B|--5-----------------------------------------|
G|------4---4---5-------5------9---7---5---2--|
D|--------------------------------------------|
A|--3-----------------------------------------|
E|------3---4---5---5------5---8---7---5---1--|


e|-------------------------------------------------------|
B|--------------3/-5-------------------------------------|
G|--2---1---1------------0---9-----------9---7---5---2---|
D|-------------------------------------------------------|
A|--------------------3----------------------------------|
E|--1---1---1---1----------------8---8---8---7---5---1---|


e|------------------------|
B|---------------------1--|
G|--2---1----1---------0--|
D|---------------------2--|
A|---------------------3--|
E|--1---1----1---------3--|



************************************

| /  Slide up

************************************
Suggest correction
comments
print report bad tab
10 comments total. Showing first comments.
0 reply
[a]MUSE 91 wrote on April 4 2004, 12:00 am

The intro is quite good but the rest is a little weird 0_o

;)

0 reply
pukubeerns 10 wrote on August 19 2004, 12:00 am

mmmm. i agree that intro is good. But in the rest part there is a big misuderstanding, because there is just a tab without any directions how to play...

but i appreciate the work you did ;-)

0 reply
sonixon 1,872 wrote on November 20 2004, 12:00 am

This tab almost perfect, and easy to read if you just play along with the song.


I rated 5 :D

guest
You may want to rate the tab now too:
select rating
Please do not post tabs as comments. Select "correction" instead!