Oops, an error
Loading. Please wait.

Falling Away With You Bass Tab

version 2
version 2

Whole song

Interactive

by Muse
7,872 views 42 this week
1 commentread comment
1 2 3 4 5
excellent!
x 8
add to favorites
launch autoscroll
font size
0
reset
guitar tuner
Tab Pro tools
  • play this tab
  • loop segment
  • change instrument
  • show fretboard
  • metronome
×
Best way to learn
"Falling Away With You"
Autoscroll
slow
fast
+/-
esc
set tempo
stop
Contributor
Difficulty
novice
Band: Muse
Song: Falling Away With You
Album: Absolution (2003)
Bassist: Chris Wolstenholme
Tuning: Standard

Verse parts are very quiet. There are 4 bars with a little differences.
I tried to "catch" every note so there may be mistakes. If it's needless
for You to remember all these 4 bars then take one and play for verse.

Verse:
                                                                  
G|------2-22---------------------------------------------------|     
D|----2------5--5-3-3-3-320------------------------------------|     
A|3-5-----------------------3--3--------------------------3----|    
E|-------------------------------3-445-5-5/8-7-5-1-11-110------|

G|------2--2---------------------------------------------------|     
D|----2------5-55-3-3-3-320------------------------------------|     
A|3-5-----------------------3-33--------------------------3----|    
E|-------------------------------3-445-55-/8-7-5-1-11-1p0------|

G|------2--2---------------------------------------------------|     
D|----2------5--5-3-3-3--20------------------------------------|     
A|3-5-----------------------3-33--------------------------3--3-|    
E|-------------------------------3-4-5-55-/8-7-5-1-111110------| 

G|-----------------------------------------------------------------|     
D|----------7-77-5-5-----------------------------------------------|     
A|3/(5)/(7)----------8-8-8-875--------------------------------3--33|    
E|-----------------------------8-88-3-4-5-5-5-/8-7-5-1-111110------| 

G|--------------------|     
D|--------------------|     
A|3-2-0---------------|    
E|------1-11-1--0~----| Play last note loud
                                                                 
Pre-chorus:

G|----------------|----------------------| 
D|----------------|--------------12141414| 12 and 14
A|0-0-0-0-0-0-0-0-|0-0-0-0-0-0-0---------|
E|----------------|----------------------|

G|----------------|    |----------------|----------------|
D|----------------|    |----------------|----------------|
A|0000000000000000|    |12(x16)---------|12(x15)\--------|
E|----------------| x2 |----------------|----------------|

Chorus:

G|-----------------|    |-----------------|----77-------77--|
D|----77-------77--|    |----77-------77--|-----------------|
A|0077--77-0077--77|    |0088--88-0088--88|0088--88-0088--88|
E|-----------------| x2 |-----------------|-----------------|

G|----66-------66--|    |----55-------55--|    |----55-------55--|
D|-----------------|    |-----------------|    |-----------------|
A|0077--77-0077--77|    |0077--77-0077--77|    |5588--88-5588--88|
E|-----------------| x2 |-----------------| x2 |-----------------| x2

G|----44-------44--|    |----55-------55--|----------------|
D|--55--55---55--55|    |--55--55---55--55|----------------|
A|55-------55------|    |33-------33------|3\--------------|
E|-----------------| x2 |-----------------|----------------|

Verse (just after slide, play along rhythm):                        
                                                                    
G|------2-2-2-2---------------------------------------------------| 
D|----2---------5-5-5-5-3-3-3-3-3-3-2-0---------------------------| 
A|3-5-----------------------------------3-3-3-3-------------------| 
E|----------------------------------------------3-3-4-4-5-5-5-5-5-| 
                                                                   
G|--------------------------------|      Play these two bars   
D|--------------------------------|          several times        
A|3-2-0-----------------3-3-3-3-3-|                                 
E|------1-1-1-1-1-1-1-1-----------|                                
                                                                    
G|--------------------------------|                                 
D|--------------------------------|                                 
A|3-2-0---------------------------|        And end like this        
E|------1-1-1-1-1-1-1-1-0~--------|                                 
                                                                    
Second chorus:

G|-----------------|    |-----------------|
D|----77-------77--|    |----77-------77--|
A|0077--77-0077--77|    |0088--88-0088--88|
E|-----------------| x2 |-----------------| x2
======================================================== x2

G|-----------------|    |-----------------|----77-------77--|
D|----77-------77--|    |----77-------77--|-----------------|
A|0077--77-0077--77|    |0088--88-0088--88|0088--88-0088--88|
E|-----------------| x2 |-----------------|-----------------|

G|----66-------66--|    |----55-------55--|    |----55-------55--|
D|-----------------|    |-----------------|    |-----------------|
A|0077--77-0077--77|    |0077--77-0077--77|    |5588--88-5588--88|
E|-----------------| x2 |-----------------| x2 |-----------------| x2

G|----44-------44--|    |----55-------55--|    |-----------------|
D|--55--55---55--55|    |--55--55---55--55|    |-----------------|
A|55-------55------|    |33-------33------|    |3~---------------|
E|-----------------| x2 |-----------------| x2 |-----------------|

Ending:             
                                                                  
G|--------2--2--------------------------------------------------|      
D|------2------5-55-3~----320-----------------------------------|       
A|(3)-5-----------------------3--3-----------3-2-0---------3~---|    
E|---------------------------------3-4-5~----------1-1-1-1------|    
                                                                 
G|------------------------|                                    
D|------------------------|                                  
A|3-2-0-------------3~----|                                    
E|------1-1-1-1~----------|                                  

/  slide up
\  slide down
h  hammer-on
p  pull-off
~  let ring
comments
print report bad tab
1 comment total.
0 reply
Jasonbts wrote on November 6 2010, 04:55 pm

Those parts are there. Not really "optional".

I want to post or [tab]
guest
You may want to rate the tab now too:
select rating
Please do not post tabs as comments. Select "correction" instead!