Oops, an error
Loading. Please wait.

Falling Away With You Tab

version 3
version 3

Whole song

Interactive

by Muse
102,773 views 96 this week
25 commentsread comments
1 2 3 4 5
excellent!
x 68
add to favorites
launch autoscroll
font size
0
reset
how to read this tab
guitar tuner
Autoscroll
slow
fast
+/-
esc
set tempo
stop
Help us to improve Ultimate-Guitar.com Take our survey!
×
Author
Muse-Falling Away With You | tabbed by Spannious

I checked out the first one on the list of "falling away with you" tabs
and I found it rather complicated so here is the less complicated version ;)

P.S. This is an updated version | 2011 - 04 - 12 DS.
Thank you for all your comments and ratings, keep em' coming!


[Intro]

e|-8---8---8---8---8---8---8---8--|
B|--------------------------------|
G|---5---5---5---5---5---5---5----|
D|--------------------------------|
A|--------------------------------|
E|--------------------------------|

Then start fast with the verse:


[Verse] (x4)

e|--------------------------------------------------------------------------|
B|--5--6--8--13--13-----12--12--10--10--10--8--6--5--5----------------5-----|
G|-----------------------------------------------------------4---4--5---5---|
D|--------------------------------------------------------------------------|
A|--3--5--7--12-----12--10-------8-------8--7--5--3----3--------------------|
E|---------------------------------------------------------3---4----5-------|


e|------------1----------------|
B|--------------------3/5----5-|
G|-9--7--5--2---2--1-----------|  <- Play this part again after playing
D|-----------------------------|     the verse 4 times.
A|--------------------2/3------|
E|-8--7--5--1------------------|


[Chorus]

      A           Dm
And I´ll feel my world crumbling     
  A      Dm                                         C6
Feel my life crumbling               e|--------------------------------|
  A           Dm                     B|--------------1-----------------|
I'll feel my soul crumbling away     G|--------------2-----------------|
             C6                      D|--------------2-----------------|
And falling away                     A|--------------3-----------------|
   F     G         C                 E|--------------------------------|
Falling away with you




Then the verse is played a little more agressive and Bellamy
plays it different from the first time. And also, you can hear in the
song, the lower notes are played continuously. For example the 
A-string in the beginning (12th fret). Check it out below:


[Verse] (x4)

e|--------------------------------------------------------------------------|
B|--5--6--8--13-----13-------12------12--------10---------------------------|
G|--------------------------------------------------------------------------|
D|--------------------------------------------------------------------------|
A|--3--5--7--12--12-----12---10---10-----10----8---8---8---8---8------------|
E|--------------------------------------------------------------------------|


e|--------------------------------------------------------------------------|
B|--10--8--6--5------5--------------------------5---5-----------------------|
G|--------------------------------4-----4-----5---5---5---------------------|
D|--------------------------------------------------------------------------|
A|--8---7--5--3---3-----3---------------------------------------------------|
E|--------------------------------3--3--4--4--5-----------------------------|


e|-------------------------------------------------|
B|-------------------------------------------------|                         
G|-9--7--5--2-----2------1------1--------0---------|   <- Play this part
D|-------------------------------------------------|      again after playing
A|---------------------------------------3-3-3-3-3-|      the verse 4 times.
E|-8--7--5--1---1----1---1---1------1--------------|      


[Chorus]

      A           Dm
And I´ll feel my world crumbling
  A      Dm
Feel my life crumbling
  A           Dm
I'll feel my soul crumbling away
             C6
And falling away
   F     G         C
Falling away with you



Verse - last time


[Verse]

e|--------------------------------------------------------------------------|
B|--5--6--8--13--13-----12--12--10--10--10--8--6--5--5----------------5-----|
G|-----------------------------------------------------------4---4--5---5---|
D|--------------------------------------------------------------------------|
A|--3--5--7--12-----12--10-------8-------8--7--5--3----3--------------------|
E|---------------------------------------------------------3---4----5-------|


e|------------1-------------------------------------------------------------|
B|--------------------3/5--5------------------------------------------------|
G|-9--7--5--2---2--1--------------9---7---5----2---2-----1--1-------0-------|
D|--------------------------------------------------------------------------|
A|--------------------2/3-------------------------------------------3-------|
E|-8--7--5--1---------------------8---7---5----1-----1---1------------------|


Structure:

[Intro]

[Verse] x4

[Chorus]

[Verse] x4

[Chorus]



************************************

| /  Slide up

************************************
Suggest correction
What's this?
You can suggest a correction to this tab. Community and Mods will review your correction and vote to approve or reject it.
comments
print report bad tab
25 comments total. Showing first comments.
+6 reply
The 6th Maroon 185 wrote on May 26 2006, 01:02 pm

The name of the chord you dont know is C6 :)
Nice tab.

+3 reply
Spannious 165 wrote on May 26 2006, 04:06 pm

Thanks!

+3 reply
Cliff_Hetfield 248 wrote on May 29 2006, 01:54 pm

H?

guest
You may want to rate the tab now too:
select rating
Please do not post tabs as comments. Select "correction" instead!