Oops, an error
Loading. Please wait.

Falling Down Tab

version 1
version 1

Whole song

by Muse
31,946 views 1 this week
3 commentsread comments
1 2 3 4 5
x 23
add to favorites
launch autoscroll
font size
0
reset
how to read this tab
guitar tuner
×
Best way to learn
"Falling Down"
Autoscroll
slow
fast
+/-
esc
set tempo
stop
                        
Author/Artist: Muse
Title: Falling Down
Album: Showbiz
Tabbed by: Dan Nightingale
Email: well_endowed_dan2@hotmail.com
I've tabbed more songs from Inme. If ya looks their i've tabbed
Crushed like fruit, underdose, neptune and web.

-------------------------------0----------------------------------0-----0-----
-------------------------3-------3-----3------------------2-2-----0---0---0---
-6---6---6----6/7/6--------2-------2---2----4/5/4-2---2---2---2---1-1---------
-7-7---7-5----------5--4-----4-------4-3--3---------4---4-2-----2-2-----------
-7-------7--7-------7-------------------------------------0-------2-----------
------------------------------------------------------------------0-----------
                                                                              

-----------0------------------------------------------------------------------
-----3-------3---2------------------------------------------------------------
-1-----2-------2-2------------------------------------------------------------
---0-----0-------2------------------------------------------------------------
-----------------0------------------------------------------------------------
------------------------------------------------------------------------------
                                                                              

-2-2-2-2-2-2--1-1-1-1-1-1--0-0-0-0-0-0--4-4-4-4-4-4--5-5-5-5-5-5--6-6-6-6-6---
-2-2-2-2-2-2--1-1-1-1-1-1--2-2-2-2-2-2--6-6-6-6-6-6--7-7-7-7-7-7--8-8-8-8-8---
-2-2-2-2-2-2--2-2-2-2-2-2--2-2-2-2-2-2--6-6-6-6-6-6--7-7-7-7-7-7--8-8-8-8-8---
-4-4-4-4-4-4--3-3-3-3-3-3--2-2-2-2-2-2--6-6-6-6-6-6--7-7-7-7-7-7--8-8-8-8-8---
-4-4-4-4-4-4--3-3-3-3-3-3--0-0-0-0-0-0--4-4-4-4-4-4--5-5-5-5-5-5--6-6-6-6-6---
-2-2-2-2-2-2--1-1-1-1-1-1---------------4-4-4-4-4-4--5-5-5-5-5-5--6-6-6-6-6---
                                                                              

-6-7-7-7-7-7-7-7--------------------------------------------------------------
-8-9-9-9-9-9-9-9--------------------------------------------------------------
-8-9-9-9-9-9-9-9--------------------------------------------------------------
-8-9-9-9-9-9-9-9--------------------------------------------------------------
-6-7-7-7-7-7-7-7--------------------------------------------------------------
-6-7-7-7-7-7-7-7--------------------------------------------------------------

sorry if its not tabbed correctly
Suggest correction
comments
print report bad tab
3 comments total.
+6 reply
colin_sox 10 Sep 30, 2006 08:58 PM

it's easier to play the first part lower, and use bends. eg
E------------------------------------0---------------------------I
B--2----2---2-------2b3r2--------3-----3---------------------2~~~I
G--2------2---2-0----------2---2---2-----2--------4b5r4--2-2-----I
D--2-------------------------4-------------4-3------------4-2----I
A--0-------------------------------------------------------------I
E----------------------------------------------------------------I

etc.

+4 reply
abs0lution33 10 Mar 14, 2008 07:37 PM

hey is this the best tab there is? For some reason I'm one of the only ones who really loves this song.

+2 reply
eglynn 10 Oct 24, 2008 08:57 AM

colin_sox, that really helped, thanks!

guest
You may want to rate the tab now too:
select rating
Wanna post a correction for this tab? Suggest correction