Oops, an error
Loading. Please wait.

Falling With The Crowd Tab

by Muse
1,312 views 3 this week
no commentswrite comment
1 2 3 4 5
please rate
add to favorites
launch autoscroll
font size
0
reset
how to read this tab
guitar tuner
Autoscroll
slow
fast
+/-
esc
set tempo
stop
Help us to improve Ultimate-Guitar.com Take our survey!
×
Contributor
Difficulty
jakemd 36
novice
Song: Falling With The Crowd
Artist: Muse
Tuning: Standard (E,A,D,G,B,e)
Time Signature: 4/4. Each bar is 4 quarter notes, divided up into 8th notes.

This is such an awesome song, they should record it again and throw it on a b-side. 
Listen to song for strumming pattern with these chords. 
Email me if you have questions at jakedemarre@hotmail.com.


Intro:
  E                 D        Ddim     C                          A
e|-0-0-0-0-0-0-0-0-|-2-2-2-2-1-1-1-1-|-0-0-0-0-0-0-0-0-|-0-0-0-0-0-0-0-0-|
B|-0-0-0-0-0-0-0-0-|-3-3-3-3-2-2-2-2-|-1-1-1-1-1-1-1-1-|-1-1-1-1-2-2-2-2-|
G|-1-1-1-1-1-1-1-1-|-2-2-2-2-2-2-2-2-|-0-0-0-0-0-0-0-0-|-0-0-0-0-2-2-2-2-|
D|-2-2-2-2-2-2-2-2-|-0-0-0-0-0-0-0-0-|-2-2-2-2-2-2-2-2-|-2-2-2-2-2-2-2-2-|
A|-2-2-2-2-2-2-2-2-|-0-0-0-0-0-0-0-0-|-3-3-3-3-3-3-3-3-|-3-3-3-3-0-0-0-0-|
E|-0-0-0-0-0-0-0-0-|-----------------|-----------------|-----------------|

  E                 D        Ddim     C                          
e|-----0-0-0-0-0-0-|-2-2-2-2-1-1-1-1-|-0-0-0-0-0-0-0-0-|-0-0-0-0--0-------|
B|-----0-0-0-0-0-0-|-3-3-3-3-2-2-2-2-|-1-1-1-1-1-1-1-1-|-1-1-1-1--0-------|
G|-----1-1-1-1-1-1-|-2-2-2-2-2-2-2-2-|-0-0-0-0-0-0-0-0-|-0-0-0-0--0-------|
D|-----2-2-2-2-2-2-|-0-0-0-0-0-0-0-0-|-2-2-2-2-2-2-2-2-|-2-2-2-2--2-------|
A|---2---2-2-2-2-2-|-0-0-0-0-0-0-0-0-|-3-3-3-3-3-3-3-3-|-3-3-3-3--3-------|
E|-0-----0-0-0-0-0-|-----------------|-----------------|------------------|


Interlude 1;

  A                                   D
e|-0---------------|-----------------|-2-2-2-2---------|-2-2-2-2---2--------|
B|-2-----2---------|-------2---------|-3-3-3-3---------|-3-3-3-3-3---3------|
G|-2---2-----------|---2---2-----2---|-2-2-2-2---------|-2-2-2-2-------2----|
D|-2-2-------------|-2---2---2-2---2-|-0-0-0-0---------|-0-0-0-0---------0--|
A|-0---------------|-----------------|-----------------|--------------------|
E|-----------------|-----------------|-----------------|--------------------|

  A                                     D
e|-0-(0)-(0)-----------|------------------|--------------------|-----------------|
B|-2-(2)-(2)-----2-2---|-2//3//5\\3-0-2-0-|---3-3\\2-2-2-2-2-2-|-----------------|
G|-2-(2)-(2)-----------|------------------|--2-----------------|-----------------|
D|-2-(2)-(2)-----------|------------------|--------------------|-----------------|
A|-0-(0)-(0)-----------|------------------|--------------------|-----------------|
E|---------------------|------------------|--------------------|-----------------|


Verse 1;

  A                                   D
e|---0-------------|-----------------|-2-2-2-2---------|-2-2-2-2---2--------|
B|---2--------2----|-------2---------|-3-3-3-3---------|-3-3-3-3-3---3------|
G|---2-----2-------|---2---2-----2---|-2-2-2-2---------|-2-2-2-2-------2----|
D|---2--2----------|-2---2---2-2---2-|-0-0-0-0---------|-0-0-0-0---------0--|
A|-0---------------|-----------------|-----------------|--------------------|
E|-----------------|-----------------|-----------------|--------------------|
	You can hear, hear your infectious laugh

  A                                     D
e|-0-(0)-(0)-----------|------------------|--------------------|
B|-2-(2)-(2)-----2-2---|-2//3//5\\3-0-2-0-|---3-3\\2-2-2-2-2-2-|
G|-2-(2)-(2)-----------|------------------|--2-----------------|
D|-2-(2)-(2)-----------|------------------|--------------------|
A|-0-(0)-(0)-----------|------------------|--------------------|
E|---------------------|------------------|--------------------|
		But you cant hear me ring the bell

  A                                   D
e|---0-------------|-----------------|-2-2-2-2---------|-2-2-2-2---2--------|
B|---2--------2----|-------2---------|-3-3-3-3---------|-3-3-3-3-3---3------|
G|---2-----2-------|---2---2-----2---|-2-2-2-2---------|-2-2-2-2-------2----|
D|---2--2----------|-2---2---2-2---2-|-0-0-0-0---------|-0-0-0-0---------0--|
A|-0---------------|-----------------|-----------------|--------------------|
E|-----------------|-----------------|-----------------|--------------------|
	You can hear, hear you singing along to this 

  A                                     D
e|-0-(0)-(0)-----------|------------------|--------------------|----0---xxxxxxxx-|
B|-2-(2)-(2)-----2-2---|-2//3//5\\3-0-2-0-|---3-3\\2-22222-2-2-|----2---xxxxxxxx-|
G|-2-(2)-(2)-----------|------------------|--2-----------------|----2---xxxxxxxx-|
D|-2-(2)-(2)-----------|------------------|--------------------|----2---xxxxxxxx-|
A|-0-(0)-(0)-----------|------------------|--------------------|----0---xxxxxxxx-|
E|---------------------|------------------|--------------------|----0---xxxxxxxx-|
And pretending not to hear me shout                      Too many...


Chorus 1;

  E                 D        Ddim     C                          A
e|-0-0-0-0-0-0-0-0-|-2-2-2-2-1-1-1-1-|-0-0-0-0-0-0-0-0-|-0-0-0-0-0-0-0-0-|
B|-0-0-0-0-0-0-0-0-|-3-3-3-3-2-2-2-2-|-1-1-1-1-1-1-1-1-|-1-1-1-1-2-2-2-2-|
G|-1-1-1-1-1-1-1-1-|-2-2-2-2-2-2-2-2-|-0-0-0-0-0-0-0-0-|-0-0-0-0-2-2-2-2-|
D|-2-2-2-2-2-2-2-2-|-0-0-0-0-0-0-0-0-|-2-2-2-2-2-2-2-2-|-2-2-2-2-2-2-2-2-|
A|-2-2-2-2-2-2-2-2-|-0-0-0-0-0-0-0-0-|-3-3-3-3-3-3-3-3-|-3-3-3-3-0-0-0-0-|
E|-0-0-0-0-0-0-0-0-|-----------------|-----------------|-----------------|
So I will close my ears to the falling with the crowd	I never thought of her

  E                 D        Ddim     C                           A        E
e|-0-0-0-0-0-0-0-0-|-2-2-2-2-1-1-1-1-|-0-0-0-0-0-0-0-0-|-0-0-0-0--0-0-0---|-0-
B|-0-0-0-0-0-0-0-0-|-3-3-3-3-2-2-2-2-|-1-1-1-1-1-1-1-1-|-1-1-1-1--2-2-2---|-0-
G|-1-1-1-1-1-1-1-1-|-2-2-2-2-2-2-2-2-|-0-0-0-0-0-0-0-0-|-0-0-0-0--2-2-2---|-1-
D|-2-2-2-2-2-2-2-2-|-0-0-0-0-0-0-0-0-|-2-2-2-2-2-2-2-2-|-2-2-2-2--2-2-2---|-2-
A|-2-2-2-2-2-2-2-2-|-0-0-0-0-0-0-0-0-|-3-3-3-3-3-3-3-3-|-3-3-3-3--0-0-0---|-2-
E|-0-0-0-0-0-0-0-0-|-----------------|-----------------|------------------|-0-
I listen to your air  Try to shout and I will smile	I never thought of her


Bridge 1;
  D        Ddim     C        E        F
e|-----------------|-----------------|-1-1-1-1-1-1-1-1-|-1-1-1-1-1-1-1-1-|
B|---3-------2-----|---1-------------|-1-1-1-1-1-1-1-1-|-1-1-1-1-1-1-1-1-|
G|-2---2---2---2---|-----0-----1-----|-4-4-4-4-4-4-4-4-|-4-4-4-4-4-4-4-4-|
D|-------0-------0-|-------2-----2---|-3-3-3-3-3-3-3-3-|-3-3-3-3-3-3-3-3-|
A|-----------------|-3-------2-----2-|-3-3-3-3-3-3-3-3-|-3-3-3-3-3-3-3-3-|
E|-----------------|-----------------|-1-1-1-1-1-1-1-1-|-1-1-1-1-1-1-1-1-|
(Falling with the crowd)


  D        Ddim     C        E        F
e|-----------------|-----------------|-1-1-1-1-1-1-1-1-|-1-1-1-1-1-1-1-1-|
B|---3-------2-----|---1-------------|-1-1-1-1-1-1-1-1-|-1-1-1-1-1-1-1-1-|
G|-2---2---2---2---|-----0-----1-----|-4-4-4-4-4-4-4-4-|-4-4-4-4-4-4-4-4-|
D|-------0-------0-|-------2-----2---|-3-3-3-3-3-3-3-3-|-3-3-3-3-3-3-3-3-|
A|-----------------|-3-------2-----2-|-3-3-3-3-3-3-3-3-|-3-3-3-3-3-3-3-3-|
E|-----------------|-----------------|-1-1-1-1-1-1-1-1-|-1-1-1-1-1-1-1-1-|
Heres to my mistake                         (Falling with the crowd)    I wanna go home

  A        G#       G        F#        F
e|-5-5-5-5-4-4-4-4-|-3-3-3-3-2-2-2-2-|-1-1-1-1-1-1-1-1-|-1-1-1-1-1-1-1-1-|
B|-5-5-5-5-4-4-4-4-|-3-3-3-3-2-2-2-2-|-1-1-1-1-1-1-1-1-|-1-1-1-1-1-1-1-1-|
G|-6-6-6-6-5-5-5-5-|-4-4-4-4-3-3-3-3-|-4-4-4-4-4-4-4-4-|-4-4-4-4-4-4-4-4-|
D|-7-7-7-7-6-6-6-6-|-5-5-5-5-4-4-4-4-|-3-3-3-3-3-3-3-3-|-3-3-3-3-3-3-3-3-|
A|-7-7-7-7-6-6-6-6-|-5-5-5-5-4-4-4-4-|-3-3-3-3-3-3-3-3-|-3-3-3-3-3-3-3-3-|
E|-5-5-5-5-4-4-4-4-|-3-3-3-3-2-2-2-2-|-1-1-1-1-1-1-1-1-|-1-1-1-1-1-1-1-1-|
								Dressed by no one else

  A        G#       G        F#        F
e|-5-5-5-5-4-4-4-4-|-3-3-3-3-2-2-2-2-|-1-1-1-1-1-1-1-1-|-1-1-1-1-1-1-1-1-|
B|-5-5-5-5-4-4-4-4-|-3-3-3-3-2-2-2-2-|-1-1-1-1-1-1-1-1-|-1-1-1-1-1-1-1-1-|
G|-6-6-6-6-5-5-5-5-|-4-4-4-4-3-3-3-3-|-4-4-4-4-4-4-4-4-|-4-4-4-4-4-4-4-4-|
D|-7-7-7-7-6-6-6-6-|-5-5-5-5-4-4-4-4-|-3-3-3-3-3-3-3-3-|-3-3-3-3-3-3-3-3-|
A|-7-7-7-7-6-6-6-6-|-5-5-5-5-4-4-4-4-|-3-3-3-3-3-3-3-3-|-3-3-3-3-3-3-3-3-|
E|-5-5-5-5-4-4-4-4-|-3-3-3-3-2-2-2-2-|-1-1-1-1-1-1-1-1-|-1-1-1-1-1-1-1-1-|

Interlude 2;

 A                                   D
e|-0---------------|-----------------|-2-2-2-2---------|-2-2-2-2---2--------|
B|-2-----2---------|-------2---------|-3-3-3-3---------|-3-3-3-3-3---3------|
G|-2---2-----------|---2---2-----2---|-2-2-2-2---------|-2-2-2-2-------2----|
D|-2-2-------------|-2---2---2-2---2-|-0-0-0-0---------|-0-0-0-0---------0--|
A|-0---------------|-----------------|-----------------|--------------------|
E|-----------------|-----------------|-----------------|--------------------|

  A                                     D
e|-0-(0)-(0)-----------|------------------|--------------------|-----------------|
B|-2-(2)-(2)-----2-2---|-2//3//5\\3-0-2-0-|---3-3\\2-2-2-2-2-2-|-----------------|
G|-2-(2)-(2)-----------|------------------|--2-----------------|-----------------|
D|-2-(2)-(2)-----------|------------------|--------------------|-----------------|
A|-0-(0)-(0)-----------|------------------|--------------------|-----------------|
E|---------------------|------------------|--------------------|-----------------|


Verse 2;

  A                                   D
e|---0-------------|-----------------|-2-2-2-2---------|-2-2-2-2---2--------|
B|---2--------2----|-------2---------|-3-3-3-3---------|-3-3-3-3-3---3------|
G|---2-----2-------|---2---2-----2---|-2-2-2-2---------|-2-2-2-2-------2----|
D|---2--2----------|-2---2---2-2---2-|-0-0-0-0---------|-0-0-0-0---------0--|
A|-0---------------|-----------------|-----------------|--------------------|
E|-----------------|-----------------|-----------------|--------------------|
	Doesnt matter cause Im not that sure
	To aware of whats been done before

  A                                     D
e|-0-(0)-(0)-----------|------------------|--------------------|----------xxxxxx-
B|-2-(2)-(2)-----2-2---|-2//3//5\\3-0-2-0-|---3-3\\2-2-2-2-2-2-|-----2----xxxxxx-
G|-2-(2)-(2)-----------|------------------|--2-----------------|-x2--2----xxxxxx-
D|-2-(2)-(2)-----------|------------------|--------------------|-----2----xxxxxx-
A|-0-(0)-(0)-----------|------------------|--------------------|-----0----xxxxxx-
E|---------------------|------------------|--------------------|----------xxxxxx-
		You can hear, hear you singing along to this 
		And pretending not to hear me shout		You know its true


Chorus 2;

  E                 D        Ddim     C                          A
e|-0-0-0-0-0-0-0-0-|-2-2-2-2-1-1-1-1-|-0-0-0-0-0-0-0-0-|-0-0-0-0-0-0-0-0-|
B|-0-0-0-0-0-0-0-0-|-3-3-3-3-2-2-2-2-|-1-1-1-1-1-1-1-1-|-1-1-1-1-2-2-2-2-|
G|-1-1-1-1-1-1-1-1-|-2-2-2-2-2-2-2-2-|-0-0-0-0-0-0-0-0-|-0-0-0-0-2-2-2-2-|
D|-2-2-2-2-2-2-2-2-|-0-0-0-0-0-0-0-0-|-2-2-2-2-2-2-2-2-|-2-2-2-2-2-2-2-2-|
A|-2-2-2-2-2-2-2-2-|-0-0-0-0-0-0-0-0-|-3-3-3-3-3-3-3-3-|-3-3-3-3-0-0-0-0-|
E|-0-0-0-0-0-0-0-0-|-----------------|-----------------|-----------------|
So I will close my ears to the falling with the crowd	I never thought of her

  E                 D        Ddim     C                           A        E
e|-0-0-0-0-0-0-0-0-|-2-2-2-2-1-1-1-1-|-0-0-0-0-0-0-0-0-|-0-0-0-0--0-0-0---|-0-
B|-0-0-0-0-0-0-0-0-|-3-3-3-3-2-2-2-2-|-1-1-1-1-1-1-1-1-|-1-1-1-1--2-2-2---|-0-
G|-1-1-1-1-1-1-1-1-|-2-2-2-2-2-2-2-2-|-0-0-0-0-0-0-0-0-|-0-0-0-0--2-2-2---|-1-
D|-2-2-2-2-2-2-2-2-|-0-0-0-0-0-0-0-0-|-2-2-2-2-2-2-2-2-|-2-2-2-2--2-2-2---|-2-
A|-2-2-2-2-2-2-2-2-|-0-0-0-0-0-0-0-0-|-3-3-3-3-3-3-3-3-|-3-3-3-3--0-0-0---|-2-
E|-0-0-0-0-0-0-0-0-|-----------------|-----------------|------------------|-0-
I listen to your air  Try to shout and I will smile	I never thought of her

Bridge 2;
  D        Ddim     C        E        F
e|-----------------|-----------------|-1-1-1-1-1-1-1-1-|-1-1-1-1-1-1-1-1-|
B|---3-------2-----|---1-------------|-1-1-1-1-1-1-1-1-|-1-1-1-1-1-1-1-1-|
G|-2---2---2---2---|-----0-----1-----|-4-4-4-4-4-4-4-4-|-4-4-4-4-4-4-4-4-|
D|-------0-------0-|-------2-----2---|-3-3-3-3-3-3-3-3-|-3-3-3-3-3-3-3-3-|
A|-----------------|-3-------2-----2-|-3-3-3-3-3-3-3-3-|-3-3-3-3-3-3-3-3-|
E|-----------------|-----------------|-1-1-1-1-1-1-1-1-|-1-1-1-1-1-1-1-1-|
(Falling with the crowd)


  D        Ddim     C        E        F
e|-----------------|-----------------|-1-1-1-1-1-1-1-1-|-1-1-1-1-1-1-1-1-|
B|---3-------2-----|---1-------------|-1-1-1-1-1-1-1-1-|-1-1-1-1-1-1-1-1-|
G|-2---2---2---2---|-----0-----1-----|-4-4-4-4-4-4-4-4-|-4-4-4-4-4-4-4-4-|
D|-------0-------0-|-------2-----2---|-3-3-3-3-3-3-3-3-|-3-3-3-3-3-3-3-3-|
A|-----------------|-3-------2-----2-|-3-3-3-3-3-3-3-3-|-3-3-3-3-3-3-3-3-|
E|-----------------|-----------------|-1-1-1-1-1-1-1-1-|-1-1-1-1-1-1-1-1-|
Heres to my mistake                         (Falling with the crowd)    I wanna go home

  A        G#       G        F#        F
e|-5-5-5-5-4-4-4-4-|-3-3-3-3-2-2-2-2-|-1-1-1-1-1-1-1-1-|-1-1-1-1-1-1-1-1-|
B|-5-5-5-5-4-4-4-4-|-3-3-3-3-2-2-2-2-|-1-1-1-1-1-1-1-1-|-1-1-1-1-1-1-1-1-|
G|-6-6-6-6-5-5-5-5-|-4-4-4-4-3-3-3-3-|-4-4-4-4-4-4-4-4-|-4-4-4-4-4-4-4-4-|
D|-7-7-7-7-6-6-6-6-|-5-5-5-5-4-4-4-4-|-3-3-3-3-3-3-3-3-|-3-3-3-3-3-3-3-3-|
A|-7-7-7-7-6-6-6-6-|-5-5-5-5-4-4-4-4-|-3-3-3-3-3-3-3-3-|-3-3-3-3-3-3-3-3-|
E|-5-5-5-5-4-4-4-4-|-3-3-3-3-2-2-2-2-|-1-1-1-1-1-1-1-1-|-1-1-1-1-1-1-1-1-|
								Dressed by no one else

  A        G#       G        F#        F
e|-5-5-5-5-4-4-4-4-|-3-3-3-3-2-2-2-2-|-1-1-1-1-1-1-1-1-|-1-1-1-1-1-1-1-1-|
B|-5-5-5-5-4-4-4-4-|-3-3-3-3-2-2-2-2-|-1-1-1-1-1-1-1-1-|-1-1-1-1-1-1-1-1-|
G|-6-6-6-6-5-5-5-5-|-4-4-4-4-3-3-3-3-|-4-4-4-4-4-4-4-4-|-4-4-4-4-4-4-4-4-|
D|-7-7-7-7-6-6-6-6-|-5-5-5-5-4-4-4-4-|-3-3-3-3-3-3-3-3-|-3-3-3-3-3-3-3-3-|
A|-7-7-7-7-6-6-6-6-|-5-5-5-5-4-4-4-4-|-3-3-3-3-3-3-3-3-|-3-3-3-3-3-3-3-3-|
E|-5-5-5-5-4-4-4-4-|-3-3-3-3-2-2-2-2-|-1-1-1-1-1-1-1-1-|-1-1-1-1-1-1-1-1-|


Solo;
  A           E              C#
e|-----------|--------------|-------------------------------|
B|-----------|--------------|-------------------------------|
G|-----------|--------------|-------------------------------|
D|-----------|----------2---|-------------------------------|
A|-----2-3-4-|--------4---5-|-4-4-3+--4-4-3+-4-4-3+-4-3+-3+-|
E|-5---------|-0-2-3--------|-------------------------------|

  A                                     D                   Ddim
e|-0-(0)-(0)-----------|----------------2-|-2-2-2-2-2-2-2-2-|-1-1-1-1-1-0-0-0-|
B|-2-(2)-(2)-----2-2---|-2//3//5\\3-0-2-3-|-3-3-3-3-3-3-3-3-|-2-2-2-2-2-2-2-2-|
G|-2-(2)-(2)-----------|----------------2-|-2-2-2-2-2-2-2-2-|-2-2-2-2-2-2-2-2-|
D|-2-(2)-(2)-----------|----------------0-|-0-0-0-0-0-0-0-0-|-----------------|
A|-0-(0)-(0)-----------|------------------|-----------------|-----------------|
E|---------------------|------------------|-----------------|-----------------|

  A           E              C#
e|-----------|--------------|-------------------------------|
B|-----------|--------------|-------------------------------|
G|-----------|--------------|-------------------------------|
D|-----------|----------2---|-------------------------------|
A|-----2-3-4-|--------4---5-|-4-4-3+--4-4-3+-4-4-3+-4-3+-3+-|
E|-5---------|-0-2-3--------|-------------------------------|

  A                                     D                   Ddim
e|-0-(0)-(0)-----------|----------------2-|-2-2-2-2-2-2-2-2-|-1-1-1-1-1-0-0-0-|
B|-2-(2)-(2)-----2-2---|-2//3//5\\3-0-2-3-|-3-3-3-3-3-3-3-3-|-2-2-2-2-2-2-2-2-|
G|-2-(2)-(2)-----------|----------------2-|-2-2-2-2-2-2-2-2-|-2-2-2-2-2-2-2-2-|
D|-2-(2)-(2)-----------|----------------0-|-0-0-0-0-0-0-0-0-|-----------------|
A|-0-(0)-(0)-----------|------------------|-----------------|-----------------|
E|---------------------|------------------|-----------------|-----------------|


Outro;

  A                 G#                G                 F#                F
e|-5-5-5-5-5-5-5-5-|-4-4-4-4-4-4-4-4-|-3-3-3-3-3-3-3-3-|-2-2-2-2-2-2-2-2-|-1-1-1-1-1-1-1-1-|
B|-5-5-5-5-5-5-5-5-|-4-4-4-4-4-4-4-4-|-3-3-3-3-3-3-3-3-|-2-2-2-2-2-2-2-2-|-1-1-1-1-1-1-1-1-|
G|-6-6-6-6-6-6-6-6-|-5-5-5-5-5-5-5-5-|-4-4-4-4-4-4-4-4-|-3-3-3-3-3-3-3-3-|-4-4-4-4-4-4-4-4-|
D|-7-7-7-7-7-7-7-7-|-6-6-6-6-6-6-6-6-|-5-5-5-5-5-5-5-5-|-4-4-4-4-4-4-4-4-|-3-3-3-3-3-3-3-3-|
A|-7-7-7-7-7-7-7-7-|-6-6-6-6-6-6-6-6-|-5-5-5-5-5-5-5-5-|-4-4-4-4-4-4-4-4-|-3-3-3-3-3-3-3-3-|
E|-5-5-5-5-5-5-5-5-|-4-4-4-4-4-4-4-4-|-3-3-3-3-3-3-3-3-|-2-2-2-2-2-2-2-2-|-1-1-1-1-1-1-1-1-|

-1-1-1-1-1-1-1-1-|
-1-1-1-1-1-1-1-1-|
-4-4-4-4-4-4-4-4-|
-3-3-3-3-3-3-3-3-|
-3-3-3-3-3-3-3-3-|
-1-1-1-1-1-1-1-1-|

  E
e|-0-------------0-----------|
B|-0-------------0-----------|
G|-1-------------1-----------|
D|-2--------2----2-----------|
A|-2------2---2--2-----------|
E|-0----0--------0-----------|


Legend:
1. (0) = quarter note (hold)
2. \\  = slide down
3. //  = slide up
4. +   = harmonic
comments
We did not receive enough feedback on this tab! Please rate:
print report bad tab
1 2 3 4 5
I want to post or [tab]
guest
You may want to rate the tab now too:
select rating
Please do not post tabs as comments. Select "correction" instead!