Oops, an error
Loading. Please wait.

Feeling Good Bass Tab

version 1
version 1

Whole song

Interactive

176,552 views 303 this week
19 commentsread comments
1 2 3 4 5
x 87
add to favorites
launch autoscroll
font size
0
reset
guitar tuner
×
Best way to learn
"Feeling Good"
Autoscroll
slow
fast
+/-
esc
set tempo
stop
Hi people! I'm back! This tab took me an hour, so if its wrong, be kind in your criticisms!
I always get confused when people write "Part A" and so on, so here is the full tab. yay!
Also, I have tabbed this to standard tuning, but you can go down an octave, it might 
sound better.

G||---------------------------------|
D||---------------------------------|
A||10---10-8---8-6---6-5--8-5-8-10--| x 2
E||---------------------------------|

G||---------------------------------------------------------------|
D||---------------------------------------------------------------|
A||10---10-8---8-7---7-6---6-5---5-3---3-1---1-0--0-3-3-3-3-3-4-5-|
E||---------------------------------------------------------------|

G||---------------|
D||---------------|
A||10-----10------|
E||---3--------3--|

G||----------------------------|
D||--------------------------7-|
A||10---10-8---8-6---6-5---9---| x 2
E||----------------------------|

G||----------------------------------------------|
D||8---8-5---5-1---1-----------------0-1---1-0---|
A||------------------3---3-1---1---1-------------|
E||------------------------------3---------------|

G||---------------------------------|
D||---------------------------------|
A||10---10-8---8-6---6-5--8-5-8-10--| x 2
E||---------------------------------|

G||-----------------------------------------------------------------|
D||-----------------------------------------------------------------|
A||10---10-8---8-7---7-6---6-5---5-3---3-1---1-0--0-3---0-------6---|
E||---------------------------------------------------------1-------|

G||----------------------------------|
D||----------------------------------|
A||5-5-5-5-5-3-5-5-5-5-5-3-5-5-5-5-5-|
E||----------------------------------|

G||---------------------------------|
D||---------------------------------|
A||10---10-8---8-6---6-5--8-5-8-10--| x 2
E||---------------------------------|

G||---------------------------------------------------------------|
D||---------------------------------------------------------------|
A||10---10-8---8-7---7-6---6-5---5-3---3-1---1-0--0-3-3-3-3-3-4-5-|
E||---------------------------------------------------------------|
Suggest correction
comments
print report bad tab
19 comments total. Showing first comments.
+1 reply
AxeBob 10 Apr 17, 2002 08:00 PM

mmm, i'm feeling good. nice work yuffie

+4 reply
fieldyofthekorn 10 Jun 22, 2003 08:00 PM

everytime u play the first riff, its played 3 times not twice, except on the outro. and where u have
g----------------
d----------------
a-10-----10------
e----3--------3--
its just 10 on the a string and nothing else. othewise a gr8 tab and im very grateful that uve tabbed it as tis a gr8 song thanx:)

0 reply
Paul Lambeth 660 Feb 02, 2007 11:37 AM

Pretty good.. at one point where everything goes quiet but Matt and Chris, Chris seems to play differently to the regular pattern. I can't work it out but it's not exactly right.

Most of it's right though :).

guest
You may want to rate the tab now too:
select rating
Wanna post a correction for this tab? Suggest correction