Oops, an error
Loading. Please wait.

Feeling Good Tab

version 3
version 3

Whole song

Interactive

by Muse
142,188 views 18 this week
3 commentsread comments
1 2 3 4 5
x 10
add to favorites
launch autoscroll
font size
0
reset
how to read this tab
guitar tuner
Autoscroll
slow
fast
+/-
esc
set tempo
stop
Help us to improve Ultimate-Guitar.com Take our survey!
×
This is a great song by muse!
Muse are the best band in the whole wide world!!
I've only done the intro, i'll tab later, I havn't got enough time at the mo, but
this is better than nothing!

Intro bass line:
I think the bass line goes something like this:

----------------------------------|
----------------------------------|
--5----5-3----3-1----1-0----3-0-3-| Repeat
----------------------------------|

Then about 40 seconds in Matt plays:

----------------------------------R
----------------------------------E
----------------------------------P
--5----5-3----3-1----1-0----3-0-3-E
--5----5-3----3-1----1-0----3-0-3-A
--5----5-3----3-1----1-0----3-0-3-T

Then:

--------------------------------------------------------------------------|
--------------------------------------------------------------------------|
-----------------------------5-----5--3-----3--2-----2----5-5-5-5-5--6--7-|
--2-----2--1-----1--0-----0--5-----5--3-----3--2-----2----5-5-5-5-5--6--7-|
--2-----2--1-----1--0-----0--3-----3--1-----1--0-----0----3-3-3-3-3--4--5-|
--2-----2--1-----1--0-----0---------------------------------------------0-|

You can just keep playing this where evers necessary!
If you have any problems e-mail me at in_your_world@hotmail.co.uk
enjoy! hope you like it
Suggest correction
comments
print report bad tab
3 comments total.
+1 reply
fazzard 10 Apr 08, 2008 03:31 PM

good song, sounds good to me :)

0 reply
Aprettch Treytr 10 Jun 28, 2009 02:03 PM

----------------------------------|
----------------------------------|
--5----5-3----3-1----1-0--0-3-0-3-| Instead.
----------------------------------|

0 reply
Guitarmnaharris 10 Aug 05, 2010 06:20 PM

Can i just add, for this tab to work the guitar needs to be in drop D tuning. If you don't know, to tune your guitar to drop D you must tune down your Low E string (6) until it produces the same note as you D string (4) (:

guest
You may want to rate the tab now too:
select rating
Wanna post a correction for this tab? Suggest correction