Oops, an error
Loading. Please wait.
We have an official Feeling Good tab made by UG professional guitarists. Check out the tab »
×
by Muse
9,754 views 9 this week
1 commentread comment
1 2 3 4 5
x 3
add to favorites
×
Save as Personal and add changes to this tab that will be seen only by you. Learn more ›
×
You can save this tab as Personal to edit and correct it or add notes. All changes will be seen only by you. Learn more »
launch autoscroll
font size
0
reset
guitar tuner
backing track
0:00
0:00
edit
Autoscroll
slow
fast
+/-
esc
set tempo
stop
Author
-------------------------------------------------------------------------------
			    Feeling Good - Muse (BASS)
-------------------------------------------------------------------------------

Tabbed By : Adam Smart
e-mail: Virtual-Dude@hotmail.co.uk
Videos : www.youtube.com/virtualdudeAdam

Tuning: Standard (GDAE)

In my cover video on YouTube, I play the 'Intro' on the A string, but in this tab it is 
on the D string as some basses only have 20 frets.
-------------------------------------------------------------------------------

'INTRO': 00:10
(Not usually played on bass, but sounds cool if you add it in! It's basically the 'Main 
but one octave higher.)
G|-----------------------------------|
D|-17--17-15--15-13--13-12--15-12-15-| x2
A|-----------------------------------|
E|-----------------------------------|

then... (Fret 10, 11 and 12 not 0, 1 and 2)
G|---------------------------------------------------------------------|
D|--17--17-15--15-14--14-13--13-12--12-10--10-8--8-7--7-10101010101112-|
A|---------------------------------------------------------------------|
E|---------------------------------------------------------------------|

'MAIN RIFF': 0:40
G|---------------------------|
D|---------------------------|
A|-10--10-8--8-6--6-5--8-5-8-| x3
E|---------------------------|

G|--------------------------------------------------------------------------|
D|--------------------------------------------------------------------------|
A|-10--10-8--8-7--7-6--6-5--5-3--3-1--1-0--0-3333345------------------------|
E|-----------------------------------------------------3~-------------33333-|

'VERSE'
G|--------------------------|
D|-----------------------7--|
A|-10--10-8--8-7--7-6--9----| x2
E|--------------------------|

G|--------------------------------------|
D|-8--8-5--5----------------------------|
A|-----------6--6-3--3-1--1-0-13\5-6--5-|
E|--------------------------------------|

'MAIN RIFF'
G|---------------------------|
D|---------------------------|
A|-10--10-8--8-6--6-5--8-5-8-| x3
E|---------------------------|

G|----------------------------------------|
D|----------------------------------------|
A|-10--10-8--8-7--7-6--6-5--5-3--3-1--1-0-|
E|----------------------------------------|

'INTERLUDE' (Fret 1 not 11 or 21)
G|----------------------------------------------|
D|----------------------------------------------|
A|--0-3~----321-0~----0---------76~----5[x24]5\-|
E|---------------------32111--------------------|

'OUTRO'
G|---------------------------|
D|---------------------------|
A|-10--10-8--8-6--6-5--8-5-8-| x2
E|---------------------------|

G|------------------------------------------------------|
D|------------------------------------------------------|
A|-10--10-8--8-7--7-6--6-5--5-3--3-1--1-0--0-3333345----|
E|----------------------------------------------------3-|


Cheers!
Any comments are appreciated! :D
(www.youtube.com/virtualdudeAdam)


| /  slide up
| \  slide down
| h  hammer-on
| p  pull-off
| ~  vibrato
| +  harmonic
| x  Mute note
===============================================================================

            
            
Suggest correction
Creating personal tab
Creating personal tab
You can edit any tab online and save it as your Personal.

You can edit, replace or remove any tab part or add personal notes – all changes will be seen only by you.

Personal tabs can be accessed anytime from any device, even offline.
Learn more »
Give kudos to tab author, rate the tab!
1 2 3 4 5
comments
print report bad tab
1 comment total.
0 reply
Sam95Mc 58 Jan 12, 2017 01:43 PM

This is by far the best tab everywhere on the internet, so thank you!
But i would suggest this correction, in the verse:

G|--------------------------|
D|-----------------------7--|
A|-10--10-8--8-6--6-5--9----| x2
E|--------------------------|

G|------------------------------------------|
D|-8--8-5--5--------------------------------|
A|-----------6--6-3--3------------5-6---6-5-|
E|---------------------6---6-3--6-----------|

guest
You may want to rate the tab now too:
select rating
Wanna post a correction for this tab? Suggest correction