Oops, an error
Loading. Please wait.

Fillip Tab

version 2
version 2

Whole song

by Muse
5,946 views 9 this week
4 commentsread comments
1 2 3 4 5
x 5
add to favorites
launch autoscroll
font size
0
reset
how to read this tab
guitar tuner
Autoscroll
slow
fast
+/-
esc
set tempo
stop
Help us to improve Ultimate-Guitar.com Take our survey!
×
Author
Title:  Fillip
Album:  Showbiz
Artist: Muse

**This is all my own work**

Note:   The album version uses a piano or something in the middle of the song. 
  I have tabbed a guitar part for this bit off a live recording of the song 
that Muse did for Triple J FM.  It's pretty easy to follow so there 
shouldn't be any trouble with it.

Intro.

|------------7--7--7-|------------7--7--7-|------------7--7--7-|
|-8-8-8-8-8--8--8--8-|-8-8-8-8-8--8--8--8-|-8-8-8-8-8--8--8--8-|
|-0-0-0-0-0--0--0--0-|-0-0-0-0-0--0--0--0-|-0-0-0-0-0--0--0--0-|
|--------------------|--------------------|--------------------|
|--------------------|--------------------|--------------------|
|--------------------|--------------------|--------------------|


|------------7--7--7-|----7---7---7---7----|-7---7---7---7---7-|
|-8-8-8-8-8--8--8--8-|----8---8---8---8----|-8---8---8---8---8-|
|-0-0-0-0-0--0--0--0-|-0-0-0-0-0-0-0-0-0-0-|--0-0-0-0-0-0-0-0--|
|--------------------|---------------------|-------------------|
|--------------------|---------------------|-------------------|
|--------------------|---------------------|-------------------|


|----7---7---7---7----|-7---7---7---7---7-|
|----8---8---8---8----|-8---8---8---8---8-|
|-0-0-0-0-0-0-0-0-0-0-|--0-0-0-0-0-0-0-0--|
|---------------------|-------------------|
|---------------------|-------------------|
|---------------------|-------------------|

Verse
|-7---7---7---7-|-7---7---7---7-|-7---7---7---7-|-7---7---7---7-|
|-8---8---8---8-|-8---8---8---8-|-8---8---8---8-|-8---8---8---8-|
|-------0-------|-------0-------|-------0-------|-------0-------|
|---------------|---------------|---------------|---------------|
|---------------|---------------|---------------|---------------|
|---------------|---------------|---------------|---------------|


|-7---7---7---7-|-7---7---7---7-|-7---7---7---7-|-7---7---7---7-|
|-8---8---8---8-|-8---8---8---8-|-8---8---8---8-|-8---8---8---8-|
|-------0-------|-------0-------|-------0-------|-------0-------|
|---------------|---------------|---------------|---------------|
|---------------|---------------|---------------|---------------|
|---------------|---------------|---------------|---------------|

Chorus
|-3-3-3-3-3-3-3-3|-5-5-5-5-5-5-5-5|-7-7-7-7-7-7-7-7|-7-7-7-7-7-7-7-7|
|-3-3-3-3-3-3-3-3|-7-7-7-7-7-7-7-7|-5-5-5-5-5-5-5-5|-5-5-5-5-5-5-5-5|
|----------------|----------------|----------------|----------------|
|----------------|----------------|----------------|----------------|
|----------------|----------------|----------------|----------------|
|----------------|----------------|----------------|----------------|


|-8-8-8-8-8-8-8-8-|-10-10-10-10-10-10-10-10-|
|-8-8-8-8-8-8-8-8-|-10-10-10-10-10-10-10-10-|
|-----------------|-------------------------|
|-----------------|-------------------------|
|-----------------|-------------------------|
|-----------------|-------------------------|


|--9--9--9--9--9--9--9--9-|--9--9--9--9--9--9--9--9-|
|-10-10-10-10-10-10-10-10-|-11-11-11-11-11-11-11-11-|
|-------------------------|-------------------------|
|-------------------------|-------------------------|
|-------------------------|-------------------------|
|-------------------------|-------------------------|
|Guitar 2                                           |
|-------5-----------5-----|--------------2----------|
|-7-----------7-----------|------2-----------2------|
|-------------------------|--3-------3-----------3--|
|-------------------------|-------------------------|
|-------------------------|-------------------------|
|-------------------------|-------------------------|


|------------7--7--7-|------------7--7--7-|------------7--7--7-|
|-8-8-8-8-8--8--8--8-|-8-8-8-8-8--8--8--8-|-8-8-8-8-8--8--8--8-|
|-0-0-0-0-0--0--0--0-|-0-0-0-0-0--0--0--0-|-0-0-0-0-0--0--0--0-|
|--------------------|--------------------|--------------------|
|--------------------|--------------------|--------------------|
|--------------------|--------------------|--------------------|


|------------7--7--7-|
|-8-8-8-8-8--8--8--8-|
|-0-0-0-0-0--0--0--0-|
|--------------------|
|--------------------|
|--------------------|

Verse 2   (Guitar 1 repeat verse 1)
Guitar 2
|-------------|-------------|-------------|-------------|
|-------------|-------------|-------------|-------------|
|-------------|-------------|-------------|-------------|
|-------------|-------------|-------------|-------------|
|-2-2-0-2-5---|-2-2-0-2-7---|-2-2-0-2-7-5-|-3-3-2-0-2---|
|-------------|-------------|-------------|-------------|


|-------------|-------------|-------------|-------------|
|-------------|-------------|-------------|-------------|
|-------------|-------------|-------------|-------------|
|-------------|-------------|-------------|-------------|
|-2-2-0-2-5---|-2-2-0-2-7---|-2-2-0-2-7-5-|-3-3-2-0-2---|
|-------------|-------------|-------------|-------------|

Guitar 1 & 2: Repeat Chorus

Bridge                              (Live bit)
|-9-9-9-9-9-9-9-9-|-9-9-9-9-9-9-9-9-|---------------|---------------|
|-----------------|-----------------|---------------|---------------|
|-----------------|-----------------|---------------|---------------|
|-----------------|-----------------|---------------|---------------|
|-----------------|-----------------|---------------|---------------|
|-----------------|-----------------|---------------|---------------|
|Guitar 2                                                           |
|-----------------|-----------------|-3-------------|---------------|
|-----------------|-----------------|-3-----3-------|--------3------|
|-4-4-4-4-4-4-4-4-|-3-3-3-3-3-3-3-3-|-3-------3---3-|--3---3---3---3|
|-----------------|-----------------|-5---------5---|5---5-------5--|
|-----------------|-----------------|-5-------------|---------------|
|-----------------|-----------------|-3-------------|---------------|

Guitar 2
|----------------|----------------|----------------|----------------|
|---------2------|---------2------|---------3------|---------3------|
|---3---3---3---3|---3---3---3---3|---3---3---3---3|---3---3---3---3|
|-4---4-------4--|-4---4-------4--|-5---5-------5--|-5---5-------5--|
|----------------|----------------|----------------|----------------|
|----------------|----------------|----------------|----------------|

G2
|----------------|----------------|---------1------|---------0------|
|---------2------|---------2------|-----------1----|-----------0----|
|---3---3---3---3|---3---3---3---3|---1---1-----1--|---1---1-----1--|
|-4---4-------4--|-4---4-------4--|-3---3---------3|-2---2---------2|
|----------------|----------------|----------------|----------------|
|----------------|----------------|----------------|----------------|

G2
|---------1------|---------0------|---------0------|----------------|
|-----------1----|-----------0----|----------------|----------------|
|---1---1-----1--|---1---1-----1--|---0---0--------|----------------|
|-3---3---------3|-2---2---------2|-2---2----------|----------------|
|----------------|----------------|----------------|----------------|
|----------------|----------------|----------------|----------------|

G1
|----------------|-----------0----|
|----------------|---0---0-----0--|
|----------------|-0---0---0-----0|
|----------------|----------------|
|----------------|----------------|
|----------------|----------------|


|----------------|----------------|----------------|----------------|
|-8-8-8-8-8-8-8-8|-8-8-8-8-8-8-8-8|-8-8-8-8-8-8-8-8|-8-8-8-8-8-8-8-8|
|-0-0-0-0-0-0-0-0|-0-0-0-0-0-0-0-0|-0-0-0-0-0-0-0-0|-0-0-0-0-0-0-0-0|
|----------------|----------------|----------------|----------------|
|----------------|----------------|----------------|----------------|
|----------------|----------------|----------------|----------------|


|----------------|----------------|----------------|-----------7-7-7|
|-8-8-8-8-8-8-8-8|-8-8-8-8-8-8-8-8|-8-8-8-8-8-8-8-8|-8-8-8-8-8-8-8-8|
|-0-0-0-0-0-0-0-0|-0-0-0-0-0-0-0-0|-0-0-0-0-0-0-0-0|-0-0-0-0-0-0-0-0|
|----------------|----------------|----------------|----------------|
|----------------|----------------|----------------|----------------|
|----------------|----------------|----------------|----------------|
|G2                                                                 |
|----------------|----------------|----------------|----------------|
|----------------|----------------|----------------|----------------|
|----------------|----------------|----------------|----------------|
|----------------|----------------|----------------|-----------5-5-5|
|-2-2-0-2-5-5-5-5|-2-2-0-2-7-7-7-7|-2-2-0-2-7-7-5-5|-3-3------------|
|----------------|----------------|----------------|----------------|

Final Chorus
|-3-3-3-3-3-3-3-3|-5-5-5-5-5-5-5-5|-7-7-7-7-7-7-7-7|-7-7-7-7-7-7-7-7|
|-3-3-3-3-3-3-3-3|-7-7-7-7-7-7-7-7|-5-5-5-5-5-5-5-5|-5-5-5-5-5-5-5-5|
|----------------|----------------|----------------|----------------|
|----------------|----------------|----------------|----------------|
|----------------|----------------|----------------|----------------|
|----------------|----------------|----------------|----------------|


|-8-8-8-8-8-8-8-8|-10-10-10-10-10-10-10-10|-12-12-12-12-12-12-12-12-|
|-8-8-8-8-8-8-8-8|-10-10-10-10-10-10-10-10|-12-12-12-12-12-12-12-12-|
|----------------|------------------------|-------------------------|
|----------------|------------------------|-------------------------|
|----------------|------------------------|-------------------------|
|----------------|------------------------|-------------------------|


|-12-12-12-12-12-12-12-12-|-3-3-3-3-3-3-3-3|-5-5-5-5-5-5-5-5|
|-12-12-12-12-12-12-12-12-|-3-3-3-3-3-3-3-3|-7-7-7-7-7-7-7-7|
|-------------------------|----------------|----------------|
|-------------------------|----------------|----------------|
|-------------------------|----------------|----------------|
|-------------------------|----------------|----------------|


|-7-7-7-7-7-7-7-7|-7-7-7-7-7-7-7-7|-8-8-8-8-8-8-8-8|
|-5-5-5-5-5-5-5-5|-5-5-5-5-5-5-5-5|-8-8-8-8-8-8-8-8|
|----------------|----------------|----------------|
|----------------|----------------|----------------|
|----------------|----------------|----------------|
|----------------|----------------|----------------|


|-10-10-10-10-10-10-10-10|
|-10-10-10-10-10-10-10-10|
|------------------------|
|------------------------|
|------------------------|
|------------------------|

Interlude
|-9-9-9-9-9-9-9-9|-9-9-9-9-9-9-9-9|-9-9-9-9-9-9-9-9|-9-9-9-9-9-9-9-9|
|----------------|----------------|----------------|----------------|
|----------------|----------------|----------------|----------------|
|----------------|----------------|----------------|----------------|
|----------------|----------------|----------------|----------------|
|----------------|----------------|----------------|----------------|
|G2                                                                 |
|----------------|-2-----------2--|----------------|----------------|
|---------2------|---2---2------2-|---------2------|---------2------|
|---2---2--------|-----3---------2|---2---2---2---2|-----------2----|
|-4---4----------|---------4------|-4---4-------4--|---4---4-----4--|
|----------------|----------------|----------------|-4---4---------4|
|----------------|----------------|----------------|----------------|


|-9-9-9-9-9-9-9-9|-9-9-9-9-9-9-9-9|-9--------------|----------------|
|----------------|----------------|----------------|----------------|
|----------------|----------------|----------------|----------------|
|----------------|----------------|----------------|----------------|
|----------------|----------------|----------------|----------------|
|----------------|----------------|----------------|----------------|
|G2                                                                 |
|---------2------|---------2------|-2--------------|----------------|
|-----------2---2|-----------2---2|-2--------------|----------------|
|---3---3-----3--|---3---3-----3--|-2--------------|----------------|
|-4---4----------|-4---4----------|-4--------------|----------------|
|----------------|----------------|----------------|----------------|
|----------------|----------------|----------------|----------------|
Suggest correction
comments
print report bad tab
4 comments total. Showing first comments.
-1 reply
aaronni 136 May 10, 2006 03:56 PM

Don't know how this hadn't been rated. Great tab

+1 reply
roo6339 81 Jul 13, 2006 03:48 AM

Not very accurate at all man.

0 reply
Gaz_m2k5 240 Aug 13, 2006 10:50 AM

good.

guest
You may want to rate the tab now too:
select rating
Wanna post a correction for this tab? Suggest correction