Oops, an error
Loading. Please wait.

Fillip bass

version 4
version 4

Whole song

by Muse
64 views 1 this week
no commentswrite comment
1 2 3 4 5
3 more votes to show rating
add to favorites
×
Save as Personal and add changes to this tab that will be seen only by you. Learn more ›
×
You can save this tab as Personal to edit and correct it or add notes. All changes will be seen only by you. Learn more »
launch autoscroll
font size
0
reset
guitar tuner
edit
Autoscroll
slow
fast
+/-
esc
set tempo
stop
Author
==============================================================================
Artist:Muse
Song:Fillip
Album:Showbiz
Tabbed by:eviegc123
Tuning:Standard
Bass Tab.
Whole Song.

| /  slide up
| \  slide down
| ~  let ring out/vibrato (hold)

IMPORTANT NOTES: I recommend you listen to the song carefully before, or while, you learn.
This tab only shows the fingering of this song (where you place your fingers on the fretboard.)
But for the rhythm and timing, listen to the song.
Also note that there are three different Choruses which have 3 different endings
that need to be played as it is tabbed. 


Intro:
G|---------------------------------|
D|---------------------------------|
A|---------------------------------|
E|--3-3-3---3-3-3---3-3-3---3-3-3--|


Verse:
G|----------7-----------9-----------9-7--------------|
D|--9-9-7-9-----9-9-7-9-----9-9-7-9-----10-10-9-7-9--|
A|---------------------------------------------------|
E|---------------------------------------------------|

G|----------7-----------9-----------9-7--------------|
D|--9-9-7-9-----9-9-7-9-----9-9-7-9-----10-10-9-7\---|
A|---------------------------------------------------|
E|---------------------------------------------------|


Chorus 1:
G|----------------------------------------------------------------------|
D|----------------------------------------------------------------------|
A|----------------------------------------------------------------------|
E|--3-3-3-3-3-3-3-3--2-2-2-2-2-2-2-2--0-0-0-0-0-0-0-0/-4-4-4-4-4-4-4-4--|

G|----------------------------------------------------------------------|
D|------------------------------------4-4-4-4-4-4-4---------------------|
A|--3-3-3-3-3-3-3-3--5-5-5-5-5-5-5-5----------------4-------------------|
E|-----------------------------------------------------2-2-2-2-2-2-2-2--|


[PLAY INTRO AND VERSE AGAIN]


Chorus 2:
G|----------------------------------------------------------------------|
D|----------------------------------------------------------------------|
A|----------------------------------------------------------------------|
E|--3-3-3-3-3-3-3-3--2-2-2-2-2-2-2-2--0-0-0-0-0-0-0-0/-4-4-4-4-4-4-4-4--|

G|----------------------------------------------------------------------|
D|------------------------------------4-4-4-4-4-4-4---------------------|
A|--3-3-3-3-3-3-3-3--5-5-5-5-5-5-5-5----------------4-------------------|
E|-----------------------------------------------------2-2-2-2-2-2-2-2--|

G|-----------------------------------|
D|--4-4-4-4-4-4-4--------------------|
A|----------------4------------------|
E|------------------2-2-2-2-2-2-2-2--|


Bridge:                                       
G|------------------------------------------|---------------------------|
D|--5~--5-5-0----5-0-5--4~--4-4------4---4--|--3~--3-3---2---2-2-2--3~--|
A|------------------------------4------4----|----------3----------------|
E|-------------3-------------------2--------|---------------------------|
                                            x2
                       then continue straight onto..

G|--------------------------|-----------------------------------|
D|--3-3----2~-----2-----2~--|-----------------------------------|
A|------3-----------2-2-----|-----------------------------------|
E|--------------------------|--0-0-0-0-0-0-0-0-0-0-0-0-0-0-0-0--|
             hold for 2 bars                 (0 x 16)

G|-------------------------------------------------------------------|
D|----------------0-0-0-0---------2-2-2-2---------2-2-0-0------------|
A|--------2-2-0-2---------2-2-0-2---------2-2-0-2---------3-3-2-0-2--|
E|--0-0-0------------------------------------------------------------|

G|---------------------------------------------------------------------|
D|----------------0-0-0-0---------2-2-2-2---------2-2-0-0--------------|
A|--2-2-2-2-2-0-2---------2-2-0-2---------2-2-0-2---------3-3/-10-10\--|
E|---------------------------------------------------------------------|
                            Gradually gets faster!

Chorus 3:
G|-----------------------------------------------------------------------|
D|-----------------------------------------------------------------------|
A|-----------------------------------------------------------------------|
E|--3-3-3-3-3-3-3-3--2-2-2-2-2-2-2-2--0-0-0-0-0-0-0-0/-4-4-4-4-4-4-4-4--|

G|--------------------------------------------------------------|
D|--------------------------------------------------------------|
A|--3-3-3-3-3-3-3-3--5-5-5-5-5-5-5-5----------------------------|
E|-------------------------------------12-12-12-12-12-12-12-12--|

G|-----------------------------------------------------------------------------|
D|-----------------------------------------------------------------------------|
A|-----------------------------------------------------------------------------|
E|--12-12-12-12-12-12-12\--3-3-3-3-3-3-3-3--2-2-2-2-2-2-2-2--0-0-0-0-0-0-0-0/--|

G|-----------------------------------------------------------------------|
D|-----------------------------------------------------4~----------------|
A|-------------------3-3-3-3-3-3-3-3--5-5-5-5-5-5-5-5--------4~----------|
E|--4-4-4-4-4-4-4-4------------------------------------------------2~----|

Outro:
G|-------------------------------|
D|--4~---------------------------|
A|--------4~---------------------|
E|--------------2~---------2~----|

This is my first tab and I learnt it by ear so I hope it's not too bad.

===============================================================================

            
            
Suggest correction
Creating personal tab
Creating personal tab
You can edit any tab online and save it as your Personal.

You can edit, replace or remove any tab part or add personal notes – all changes will be seen only by you.

Personal tabs can be accessed anytime from any device, even offline.
Learn more »
Give kudos to tab author, rate the tab!
1 2 3 4 5
comments
print report bad tab
guest
You may want to rate the tab now too:
select rating
Wanna post a correction for this tab? Suggest correction