Oops, an error
Loading. Please wait.

Follow Me Bass Tab

version 1
version 1

Whole song

  • This song is meant to be played with half-step dow... Show more

Interactive

by Muse
17,594 views 42 this week
no commentswrite comment
1 2 3 4 5
excellent!
x 16
add to favorites
launch autoscroll
font size
0
reset
guitar tuner
Autoscroll
slow
fast
+/-
esc
set tempo
stop
Help us to improve Ultimate-Guitar.com Take our survey!
×
Contributor
Difficulty
novice
Follow Me - Muse 

This song is from Muse new album "The 2nd Law".  

CORRECTION (9/12/2013). I changed the "15's" to "3's". It's right both ways, but 
Chris plays it with "3's". It's only an octave lower :)

Bass starts at 1:11 when Matt sings for the first time "follow me". 

Verse 1 (clear)

G|--------------------------------------------------------|
D|--------------------------------------------------------|
A|-11(x16)--3(x16)--6(x16)---------8(x16)---------5(x20)--| Let ring the last 5
E|--------------------------3(x32)---------8(x16)---------|

Chorus (overdrive)

G|------------------------------------------------------------------------------|
D|------------------------------------------------------------------------------|
A|-----------------------------6(x4)--------------------------------8(x8)-------|
E|-4(x8)-8-8-8-8-8-8-8-8\4(x8)-------3(x4)-4(x8)-8-8-8-8-8-8-8-8\4--------6(x8)-|

Verse 2 (clear)

G|----------------------------------------------------------------|
D|----------------------------------------------------------------|
A|----------------6(x16)--------------------------6(x16)----------|
E|-4(x16)--8(x16)----------6(x32)--4(x16)--8(x16)---------6(x20)--| Let ring the last 6 

Chorus 2 (overdrive) 

G|------------------------------------------------------------------------------------|
D|------------------------------------------------------------------------------------|
A|-----------------------------6(x4)-------------------------------8(x8)-----6(let ring)
E|-4(x8)-8-8-8-8-8-8-8-8\4(x8)-------3(x4)-4(x8)-8-8-8-8-8-8-8-8\4------6(x8)---------|

End (distortion)

A|----6(let it ring)----|| Play it every time Matt screams

This is my first tab.  

If you have any corrections feel free to e-mail me at cesarxalbertyz253@hotmail.com

Enjoy your learning, cheers! :D
comments
print report bad tab
I want to post or [tab]
guest
You may want to rate the tab now too:
select rating
Please do not post tabs as comments. Select "correction" instead!