Oops, an error
Loading. Please wait.

Forced In Bass Tab

version 2
version 2

Whole song

Interactive

by Muse
650 views 1 this week
no commentswrite comment
1 2 3 4 5
1 last vote to show rating
add to favorites
launch autoscroll
font size
0
reset
guitar tuner
Autoscroll
slow
fast
+/-
esc
set tempo
stop
Help us to improve Ultimate-Guitar.com Take our survey!
×
Author
Difficulty
novice
Band: Muse
Song: Forced In
Album: Hullabaloo Soundtrack CD1
Bassist: Chris Wolstenholme
Tuning: Standard

  +   +   +   +
G|----------------|
D|----------------|
A|----------------|
E|5~------3~------| x4

[0:33] Now there's no bass but You can play guitar part like this:

  +     +     +     +      +     +     +     +        
G|------13~---------------|------14~---------------|  
D|---15~------------------|---16~------------------|  
A|------------------------|------------------------|  
D|13~---------------------|14~---------------------|

[0:46] Push me... (You can add some dead/extra notes on drum beats)

  +   +   +   +    +   +   +   +        +   +   +   +    +   +   +   +  
G|----------------|----------------|   |----------------|----------------|
D|----------------|----------------|   |----------------|----------------|
A|----------------|----------------|   |----------------|----------------|
E|1-1~------------|2-2~------------|x6 |5~--------------|3~--------------|x2

G|----------------|----------------|   |----------------|----------------|
D|----------------|----------------|   |----------------|----------------|
A|----------------|----------------|   |----------------|----------------|
E|5-5-5~----------|3-3-3~----------|x4 |1-1~------------|2-2~------------|x4

G|----------------|----------------|   |----------------|----------------|
D|----------------|----------------|   |----------------|----------------|
A|----------------|----------------|   |----------------|----------------|
E|5-5-------------|4-4-------------|x4 |1-1-------------|2-2-------------|x8


/  slide up
\  slide down
h  hammer-on
p  pull-off
~  let ring
Suggest correction
Give kudos to tab author, rate the tab!
1 2 3 4 5
comments
print report bad tab
guest
You may want to rate the tab now too:
select rating
Wanna post a correction for this tab? Suggest correction