Oops, an error
Loading. Please wait.

Fury Tab

version 1
version 1

Whole song

by Muse
8,319 views 1 this week
2 commentsread comments
1 2 3 4 5
1 last vote to show rating
add to favorites
launch autoscroll
font size
0
reset
how to read this tab
guitar tuner
Autoscroll
slow
fast
+/-
esc
set tempo
stop
Help us to improve Ultimate-Guitar.com Take our survey!
×
Author
Band - Muse
Song - Fury

Intro

E-----------|
B-----10~---|
G-----------|
D-----------|
A-----------|
E-----------|

Main riff
E---------------------------------|--------------|
B--10--9-9-9----------------------|--------9-----|
G-----------10-10-10-9-9-9--------|--10-10-------|
D---------------------------------|--------------| X 2
A---------------------------------|--------------|
E---------------------------------|--------------|


E---------------------------------|
B---------------------------------|
G--9-7----------------------------|
D------10-9-10-9-7-10-9-----------|
A---------------------------------|
E---------------------------------|


Verse - No Guitar

Chorus (X 2):

E--1--------1-------1-------1---------|
B----2---2----2---2---2---2---2---2---|
G------3--------3-------3-------3-----|
D-------------------------------------|
A-------------------------------------|
E-------------------------------------|

E--1--------1-------1-------1---------|
B----1---1----1---1---1---1---1---1---|
G------2--------2-------2-------2-----|
D-------------------------------------|
A-------------------------------------|
E-------------------------------------|

E--0--------0-------0-------0---------|
B----1---1----1---1---1---1---1---1---|
G------0--------0-------0-------0-----|
D-------------------------------------|
A-------------------------------------|
E-------------------------------------|

E--0--------0-------0-------0---------|
B----0---0----0---0---0---0---0---0---|
G------1--------1-------1-------1-----|
D-------------------------------------|
A-------------------------------------|
E-------------------------------------|

Bass Interlude - No Guitar

Verse - No Guitar

Chorus

Bridge
E--------------------------------------|
B---10-10-10-10----10-10-10-10-10------|
G--------------------------------------|
D--------------------------------------|
A--------------------------------------|
E--------------------------------------|

Then
E---------------------------------|--------------|
B--10--9-9-9----------------------|--------9-----|
G-----------10-10-10-9-9-9--------|--10-10-------|
D---------------------------------|--------------| X 2
A---------------------------------|--------------|
E---------------------------------|--------------|

E------------------------------------------------|
B--10-12-12b--10-12-15--13-12-13-12-10-13-12-----|
G------------------------------------------------|
D------------------------------------------------|
A------------------------------------------------|
E------------------------------------------------|

Chorus

Bridge
Suggest correction
Give kudos to tab author, rate the tab!
1 2 3 4 5
comments
print report bad tab
2 comments total.
0 reply
:Revenga: 370 May 09, 2006 05:55 PM

Good tab! Except the chorus should be played like dis

E--1--------1-------1-------1---------|
B----3---3----3---3---3---3---3---3---|
G------2--------2-------2-------2-----|
D-------------------------------------|
A-------------------------------------|
E-------------------------------------|


and

E--1--------1-------1-------1---1--3--|
B----1---1----1---1---1---1---1-------|
G------2--------2-------2-------------|
D-------------------------------------|
A-------------------------------------|
E-------------------------------------|

Theyre no big deal. Also I think all the notes are played twice? Could just be my ears. Anyway, good job!

0 reply
MaXiMuse 951 Jul 21, 2007 03:24 PM

some little mistakes, but still good work

guest
You may want to rate the tab now too:
select rating
Wanna post a correction for this tab? Suggest correction