Oops, an error
Loading. Please wait.

Fury Tab

version 2
version 2

Whole song

by Muse
20,344 views 81 this week
1 commentread comment
1 2 3 4 5
worth learning
x 7
add to favorites
launch autoscroll
font size
0
reset
how to read this tab
guitar tuner
Tab Pro tools
  • play this tab
  • loop segment
  • change instrument
  • show fretboard
  • metronome
Autoscroll
slow
fast
+/-
esc
set tempo
stop
Contributor
This is a great song! I wish it was on the UK absolution rather than the Japan version
but still, the album's still amazing anyway!
in_your_world@hotmail.co.uk

Tuning: Standard

Intro:
-------------------------------------------R
---10\-10-10-10-9-9-6-6-9\5-5-5-5-5-6-6-9--E
-------------------------------------------P x3
-------------------------------------------E
-------------------------------------------A
-------------------------------------------T

----------------------|
--3-------------------|
----4-555-44-2-4-5-4--|
----------------------|
----------------------|
----------------------|

Verse: I'm not sure if this is guitar or bass(sounds more like bass) but you this
sounds the same on guitar anyway, so it really doesn't matter.
---------------R
---------------E
---------------P x4
-7---------5-6-E
---3-5-6-7-----A
---------------T

Chorus:
---------R     |---------R     |---------R
-6-------E     |-6-------E     |-6---6-8-E
---7---7-P x4  |---5---5-P x3  |---5-----P x1
-----7---E     |-----7---E     |---------E
---------A     |---------A     |---------A
---------T     |---------T     |---------T

---------R     |---------R
-5-------E     |-5-------E
---5---5-P x4  |---4---4-P x4
-----5---E     |-----6---E
---------A     |---------A
---------T     |---------T

Fill:
-------------------------------------------R
---10\-10-10-10-9-9-6-6-9\5-5-5-5-5-6-6-9--E
-------------------------------------------P x3
-------------------------------------------E
-------------------------------------------A
-------------------------------------------T

----------------------|
--3-------------------|
----4-555-44-2-4-5-4--|
----------------------|
----------------------|
----------------------|

Verse:
---------------R
---------------E
---------------P x4
-7---------5-6-E
---3-5-6-7-----A
---------------T

Chorus:
---------R     |---------R     |---------R
-6-------E     |-6-------E     |-6---6-8-E
---7---7-P x4  |---5---5-P x3  |---5-----P x1
-----7---E     |-----7---E     |---------E
---------A     |---------A     |---------A
---------T     |---------T     |---------T

---------R     |---------R
-5-------E     |-5-------E
---5---5-P x4  |---4---4-P x4
-----5---E     |-----6---E
---------A     |---------A
---------T     |---------T

Pre-Solo:
------------------------------------------|
------------------------------------------|
------------------------------------------|   
------------------------------------------|
------------------------------------------|
-12--3-5-6-7---12--3-5-6-7--12-12-3-5-6-7-|

------------------|
-11--11--11-11-11-|
------------------|   
------------------|
------------------|
------------------|
play a few times...

Solo:
----------------------------------------R
----10-10-10-9-9-6-6-9\5-5-5-5-5-6-6-9--E
----------------------------------------P x2
----------------------------------------E
----------------------------------------A
----------------------------------------T

------------------------------------------------|
-10-12-13-12-10-9-15---13-12-13--12-10-12-13-12-|
------------------------------------------------|
------------------------------------------------|
------------------------------------------------|
------------------------------------------------|

Chorus:
---------R     |---------R     |---------R
-6-------E     |-6-------E     |-6---6-8-E
---7---7-P x4  |---5---5-P x3  |---5-----P x1
-----7---E     |-----7---E     |---------E
---------A     |---------A     |---------A
---------T     |---------T     |---------T

---------R     |---------R
-5-------E     |-5-------E
---5---5-P x4  |---4---4-P x4
-----5---E     |-----6---E
---------A     |---------A
---------T     |---------T

Outro:
------------------------------------------|
------------------------------------------|
------------------------------------------|   
------------------------------------------|
------------------------------------------|
-12--3-5-6-7---12--3-5-6-7--12-12-3-5-6-7-|

------------------|
-11--11--11-11-11-|
------------------|   
------------------|
------------------|
------------------|

And there you have it! Sorry if it seems a bit all over the place but i got a bit
confused with what i was doin just a second ago but it all looks as if its in order
to me but if you do have any problems or questions e-mail me in_your_world@hotmail.co.uk
but im more than sure that everythings in the right place but if its not its really
not hard to work out.
Muse are the best band in the whole world!!
Keep rockin' matt!!
comments
print report bad tab
1 comment total.
0 reply
08L1V10N wrote on November 13 2007, 01:55 pm

the intro is

e--------------------------------------- --------------|
B--------------------------------------- --------------|
G-14b--14-14-14-13-13-10-10--13-10-9-9-9 -9-9-10-10-13-|
D--------------------------------------- --------------| x2
A--------------------------------------- --------------|
E--------------------------------------- --------------|

e--------------------------------------- ------|
B--------------------------------------- ------|
G--14b--13-13-10-10--13-10-9b--9-7-5-4-5 -2-4b-|
D--------------------------------------- ------|
A--------------------------------------- ------|
E--------------------------------------- ------|

I want to post or [tab]
guest
You may want to rate the tab now too:
select rating
Please do not post tabs as comments. Select "correction" instead!