Oops, an error
Loading. Please wait.

Fury Tab

version 3
version 3

Whole song

by Muse
30,082 views 66 this week
5 commentsread comments
1 2 3 4 5
excellent!
x 26
add to favorites
launch autoscroll
font size
0
reset
how to read this tab
guitar tuner
Tab Pro tools
  • play this tab
  • loop segment
  • change instrument
  • show fretboard
  • metronome
Autoscroll
slow
fast
+/-
esc
set tempo
stop
Contributor
Difficulty
intermediate
Tabbed by Leo   bwotkins@blueyonder.co.uk

bonus track for japan. wish it was on the proper uk absolution though.


play with slight delay

|-------------| |---------------------------------------------------------|
|-------------| |---------------------------------------------------------|
|-14~~~~~~~~--| |-14--14-13-13-10-9~~~~~-10-10-13--14--14-13-13-10-9~~~~~-|
|-------------| |---------------------------------------------------------|
|-------------| |---------------------------------------------------------|
|-------------| |---------------------------------------------------------|


|---------------------------------------------------------|
|---------------------------------------------------------|
|-14--14-13-13-10-9~~~~~-7--------------------------------|
|--------------------------10--10-9-10-9-10---9--7-9~~~~~-|
|---------------------------------------------------------|
|---------------------------------------------------------


 verse is mostly bass, but there is some guitar which is heavier and has some late attack on it.

|-------------------------|
|-------------------------|
|-------------------------|
|-7-----------------5-5-6-|
|------3--5--6-7----------|
|-------------------------|                          
    repeat 4 times


chorus, has no real sort of effects, but is slightly palm muted


|-----------------|
|-6-6-------------|
|-----7-7-----7-7-|
|---------7-7-----|  x4
|-----------------|
|-----------------|

|-----------------|
|-6-6-------------|
|-----5-5-----5-5-|
|---------7-7-----|  x4
|-----------------|
|-----------------|

|-----------------|
|-5-5-------------|
|-----5-5-----5-5-|
|---------5-5-----|  x4
|-----------------|
|-----------------|

|-----------------|
|-5-5-------------|
|-----4-4-----4-4-|
|---------6-6-----|  x4
|-----------------|
|-----------------|

repeat for a full chorus




play verse again, then chorus, then this part - quite heavy


(|--------------------------|
(|--------------------------|
(|--------------------------|
(|--------------------------|  x2
(|-7------------7-------5-7-|
(|---3-6-7-0------3-6-7-----|

|----------------------------------|)
|-11-11--11-11--11-11--11-11-11-11-|)
|----------------------------------|)
|----------------------------------|)
|----------------------------------|)
|----------------------------------|)

now this part with delay



|---------------------------------|
|---------------------------------|
|-14--14-13-13-10-9~~~~~-10-10-13-|
|---------------------------------|  x2
|---------------------------------|
|---------------------------------|


|-------------------------------------------------------------------|
|-----12----12b-------15---13--12--13-12-13-12-13--12-------12~~~~~-|
|-14-----14-----14-13-----------------------------------14----------|
|-------------------------------------------------------------------|
|-------------------------------------------------------------------|
|-------------------------------------------------------------------|


chorus, then part in brackets (part after second chorus)

and thats it

Leo
comments
print report bad tab
5 comments total. Showing first comments.
+2 reply
kickthebass wrote on December 15 2006, 02:56 am

great song
great tab :)
+1

+3 reply
Hops44 wrote on March 31 2007, 04:26 pm

Sounds great man, 5 stars

+2 reply
aceofclover wrote on August 9 2008, 12:04 pm

great tab man especially on the chorus

I want to post or [tab]
guest
You may want to rate the tab now too:
select rating
Please do not post tabs as comments. Select "correction" instead!