Oops, an error
Loading. Please wait.

Fury Tab

version 4
version 4

Whole song

by Muse
6,398 views 6 this week
1 commentread comment
1 2 3 4 5
excellent!
x 4
add to favorites
launch autoscroll
font size
0
reset
how to read this tab
guitar tuner
Autoscroll
slow
fast
+/-
esc
set tempo
stop
Help us to improve Ultimate-Guitar.com Take our survey!
×
Author
xtrecate 408
Muse - Fury
Album: B-Sides


Tabbed by: Eric A.
two2twelve@gmail.com


Tuning: E A D G B E

Legend:

b - bend
p - pull off
h - hammer on
\\ - slide down
// - slide up
~~ - vibrato
pm - palm mute
x - muted string

Though it's often tabbed (and played live) as 1 guitar. There are 2 layered guitar 
throughout nearly the entire recorded version. I've tabbed both of them here.


0:00

Guitar 1 (Delay, Whammy)

E------|--------------------------------------------------------------------------------|
B------|--------------------------------------------------------------------------------|
G-14~--|---14~--13~--10~--9~----10~--13--14~--13~--10~--9~--10~--13--14~--13~--10~--9~--|
D------|--------------------------------------------------------------------------------|
A------|--------------------------------------------------------------------------------|
E------|--------------------------------------------------------------------------------|


----------------------------------|
----------------------------------|
----------------------------------|
--7~--5~--4~--5~--4~--2~--4b5r4~--|
----------------------------------|
----------------------------------|


Guitar 2 (Heavy Distortion)

E---------------------------------|
B---------------------------------|
G---------------------------------|
D---------------------------------|
A-12\\-----------------10-10--11--| x5
E-------8--10--11--12-------------|

0:26

Guitar 2 (Heavy Distortion)

E---------------------------------|
B---------------------------------|
G---------------------------------|
D---------------------------------|
A-12\\-----------------10-10--11--| x4
E-------8--10--11--12-------------|

0:50

Guitar 1 (Distortion, Delay)

                        x4                        x4                      x4             
    x4
E-------------------------|-------------------------|-----------------------|-------------------|
B-------------------------|-------------------------|-----------------------|-------------------|
G-10-10-------------------|-10-10-------------------|-9-9-------------------|-9-9---------------|
D-------12-12-------12-12-|-------10-10-------10-10-|-----10-10-------10-10-|-----9-9-------9-9-|
A-------------12-12-------|-------------12-12-------|-----------10-10-------|---------10-10-----|
E-------------------------|-------------------------|-----------------------|-------------------|


                        x4                        x4                      x4             
    x4
E-------------------------|-------------------------|-----------------------|-------------------|----|
B-------------------------|-------------------------|-----------------------|-------------------|----|
G-10-10-------------------|-10-10-------------------|-9-9-------------------|-9-9---------------|----|
D-------12-12-------12-12-|-------10-10-------10-10-|-----10-10-------10-10-|-----9-9-------9-9-|-9\-|
A-------------12-12-------|-------------12-12-------|-----------10-10-------|---------10-10-----|----|
E-------------------------|-------------------------|-----------------------|-------------------|----|


Guitar 2 (Distortion)
                                x2                                x2
E---------------------------------|---------------------------------|
B-------------6-6-----------------|-------------6-6-----------------|
G---------7-7-----7-7-------------|---------5-5-----5-5-------------|
D-----7-7-------------7-7-----7-7-|-----7-7-------------7-7-----7-7-|
A-5-5---------------------5-5-----|-8-8---------------------8-8-----|
E---------------------------------|---------------------------------|

                                x2                                x2
E---------------------------------|---------------------------------|
B-------------5-5-----------------|-------------5-5-----------------|
G---------5-5-----5-5-------------|---------4-4-----4-4-------------|
D-----5-5-------------5-5-----5-5-|-----6-6-------------6-6-----6-6-|
A-3-3---------------------3-3-----|-7-7---------------------7-7-----|
E---------------------------------|---------------------------------|

1:37

Guitar 2 (Heavy Distortion)

E---------------------------------|
B---------------------------------|
G---------------------------------|
D---------------------------------|
A-12\\-----------------10-10--11--| x6
E-------8--10--11--12-------------|

2:13

Guitar 1 (Distortion, Delay)

                        x4                        x4                      x4             
    x4
E-------------------------|-------------------------|-----------------------|-------------------|
B-------------------------|-------------------------|-----------------------|-------------------|
G-10-10-------------------|-10-10-------------------|-9-9-------------------|-9-9---------------|
D-------12-12-------12-12-|-------10-10-------10-10-|-----10-10-------10-10-|-----9-9-------9-9-|
A-------------12-12-------|-------------12-12-------|-----------10-10-------|---------10-10-----|
E-------------------------|-------------------------|-----------------------|-------------------|


                        x4                        x4                      x4             
    x4
E-------------------------|-------------------------|-----------------------|-------------------|----|
B-------------------------|-------------------------|-----------------------|-------------------|----|
G-10-10-------------------|-10-10-------------------|-9-9-------------------|-9-9---------------|----|
D-------12-12-------12-12-|-------10-10-------10-10-|-----10-10-------10-10-|-----9-9-------9-9-|-9\-|
A-------------12-12-------|-------------12-12-------|-----------10-10-------|---------10-10-----|----|
E-------------------------|-------------------------|-----------------------|-------------------|----|


Guitar 2 (Distortion)

                                x2                                x2
E---------------------------------|---------------------------------|
B-------------6-6-----------------|-------------6-6-----------------|
G---------7-7-----7-7-------------|---------5-5-----5-5-------------|
D-----7-7-------------7-7-----7-7-|-----7-7-------------7-7-----7-7-|
A-5-5---------------------5-5-----|-8-8---------------------8-8-----|
E---------------------------------|---------------------------------|

                                x2                                x2
E---------------------------------|---------------------------------|
B-------------5-5-----------------|-------------5-5-----------------|
G---------5-5-----5-5-------------|---------4-4-----4-4-------------|
D-----5-5-------------5-5-----5-5-|-----6-6-------------6-6-----6-6-|
A-3-3---------------------3-3-----|-7-7---------------------7-7-----|
E---------------------------------|---------------------------------|


3:00

Guitar 1 (Distortion, Whammy)

* Rest 2 Bars *

                                         x2
E------------------------------------------|
B------------------------------------------|
G--15~-15~-15~-15~----15~-15~-15~-15~-15~--|
D------------------------------------------|
A------------------------------------------|
E------------------------------------------|


Guitar 2 (Heavy Distortion)

E---------------------------------------------|
B---------------------------------------------|
G---------------------------------------------|
D---------------------------------------------|
A-7\\----------------7\\----------0--5--0--7--| x4
E------3--7--8--0--------3--7--8--------------|

3:23

Guitar 1 (Delay, Whammy)

E------|-------------------------------------------------------------------|
B------|-------------------------------------------------------------------|
G-14~--|---14~--13~--10~--9~----10~--13--14~--13~--10~--9~--10~--13--14~---|
D------|-------------------------------------------------------------------|
A------|-------------------------------------------------------------------|
E------|-------------------------------------------------------------------|


-----------------------------------------------------------------|
-----------------------------------------------------------------|
----------------------15~-13-13-12-13p12-13~--12~----------------|
--16b17r16~--14~--13~------------------------------14~--14b16~~--|
-----------------------------------------------------------------|
-----------------------------------------------------------------|


Guitar 2 (Heavy Distortion)

E---------------------------------|
B---------------------------------|
G---------------------------------|
D---------------------------------|
A-12\\-----------------10-10--11--| x6
E-------8--10--11--12-------------|

3:47

Guitar 1 (Distortion, Delay)

                        x4                        x4                      x4             
    x4
E-------------------------|-------------------------|-----------------------|-------------------|
B-------------------------|-------------------------|-----------------------|-------------------|
G-10-10-------------------|-10-10-------------------|-9-9-------------------|-9-9---------------|
D-------12-12-------12-12-|-------10-10-------10-10-|-----10-10-------10-10-|-----9-9-------9-9-|
A-------------12-12-------|-------------12-12-------|-----------10-10-------|---------10-10-----|
E-------------------------|-------------------------|-----------------------|-------------------|


                        x4                        x4                      x4             
    x4
E-------------------------|-------------------------|-----------------------|-------------------|----|
B-------------------------|-------------------------|-----------------------|-------------------|----|
G-10-10-------------------|-10-10-------------------|-9-9-------------------|-9-9---------------|----|
D-------12-12-------12-12-|-------10-10-------10-10-|-----10-10-------10-10-|-----9-9-------9-9-|-9\-|
A-------------12-12-------|-------------12-12-------|-----------10-10-------|---------10-10-----|----|
E-------------------------|-------------------------|-----------------------|-------------------|----|


Guitar 2 (Distortion)

                                x2                                x2
E---------------------------------|---------------------------------|
B-------------6-6-----------------|-------------6-6-----------------|
G---------7-7-----7-7-------------|---------5-5-----5-5-------------|
D-----7-7-------------7-7-----7-7-|-----7-7-------------7-7-----7-7-|
A-5-5---------------------5-5-----|-8-8---------------------8-8-----|
E---------------------------------|---------------------------------|

                                x2                                x2
E---------------------------------|---------------------------------|
B-------------5-5-----------------|-------------5-5-----------------|
G---------5-5-----5-5-------------|---------4-4-----4-4-------------|
D-----5-5-------------5-5-----5-5-|-----6-6-------------6-6-----6-6-|
A-3-3---------------------3-3-----|-7-7---------------------7-7-----|
E---------------------------------|---------------------------------|

4:33

Guitar 1 (Distortion, Whammy)

* Rest 2 Bars *

                                         x2
E------------------------------------------|
B------------------------------------------|
G--15~-15~-15~-15~----15~-15~-15~-15~-15~--|
D------------------------------------------|
A------------------------------------------|
E------------------------------------------|


Guitar 2 (Heavy Distortion)
                                            x3
E---------------------------------------------|------------------------------------|
B---------------------------------------------|------------------------------------|
G---------------------------------------------|------------------------------------|
D---------------------------------------------|------------------------------------|
A-7\\----------------7\\----------0--5--0--7--|-7\\----------------7\\-------------|
E------3--7--8--0--------3--7--8--------------|------3--7--8--0--------3--7--8--0--|


-E-mail me
Suggest correction
What's this?
You can suggest a correction to this tab. Community and Mods will review your correction and vote to approve or reject it.
comments
print report bad tab
1 comment total.
+1 reply
Teej212 523 wrote on January 5 2009, 06:56 pm

great job. this is the best, not power or guitar pro tab, i have seen of this song. great job

guest
You may want to rate the tab now too:
select rating
Please do not post tabs as comments. Select "correction" instead!