Oops, an error
Loading. Please wait.

Futurism Bass Tab

version 4
version 4

Whole song

by Muse
5,889 views 9 this week
1 commentread comment
1 2 3 4 5
x 5
add to favorites
launch autoscroll
font size
0
reset
guitar tuner
Autoscroll
slow
fast
+/-
esc
set tempo
stop
Help us to improve Ultimate-Guitar.com Take our survey!
×
Author
Difficulty
intermediate
Band: Muse
Song: Futurism
Album: Origin Of Symmetry - Japanese Edition (2001)
Bassist: Chris Wolstenholme
Tuning: Standard

Verse: (Main riff for the song)

G|-----12-----------|--------------------|-----------------|--------------------|
D|---------12--11-12|------12--------11--|----10---7-8-7---|----8---------12----|
A|10-10--10--10-----|--------------------|---------------10|--------------------|
E|------------------|10-10----10-9-9----9|8-8----8---------|6-6---6-10-10----10-|x8

Chorus:

G|------------------|-----------------------|---------------|---------------|
D|------------------|-----------------------|---------------|---------------|
A|10101010101010----|12121212121212--121414\|---------------|---------------|
E|------------------|-----------------------|8-8-8-8-8-8-8-8|7-7-7-7-7-7-7-7|x2

Verse: (same as first)

G|-----12-----------|--------------------|-----------------|--------------------|
D|---------12--11-12|------12--------11--|----10---7-8-7---|----8---------12----|
A|10-10--10--10-----|--------------------|---------------10|--------------------|
E|------------------|10-10----10-9-9----9|8-8----8---------|6-6---6-10-10----10-|x6

Chorus:

G|------------------|-----------------------|---------------|---------------|
D|------------------|-----------------------|---------------|---------------|
A|10101010101010----|12121212121212--121414\|---------------|---------------|
E|------------------|-----------------------|8-8-8-8-8-8-8-8|7-7-7-7-7-7-7-7|x2

G|--------------------------|---------------------------|---------------|---------------|
D|--------------------------|---------------------------|---------------|---------------|
A|101010-101010--1010-101010|121212-121212--1212-121414\|---------------|---------------|
E|--------------------------|---------------------------|8-8-8-8-8-8-8-8|7-7-7-7-7-7-7-7|x2

G|------------------|-----------------------|---------------|---------------|
D|------------------|-----------------------|---------------|---------------|
A|10101010101010----|12121212121212--121414\|---------------|---------------|
E|------------------|-----------------------|8-8-8-8-8-8-8-8|7-7-7-7-7-7-7-7|x2

G|--------------------------|---------------------------|----------------|
D|--------------------------|---------------------------|----------------|
A|101010-101010--1010-101010|121212-121212--1212-121414\|----------------|
E|--------------------------|---------------------------|8~------7~------|

About last note - 7th fret on E - this is real note but You can play 3rd
fret on E - it will sound better in my opinion. 


/  slide up
\  slide down
h  hammer-on
p  pull-off
~  let ring
Suggest correction
comments
print report bad tab
1 comment total.
0 reply
Lisathepirate 10 Mar 24, 2013 08:32 AM

At the end,
---------|
---12----|
---------|
10----10-|
is
---------|
---------|
---12----|
10----10-|
Still a very good tab!

guest
You may want to rate the tab now too:
select rating
Wanna post a correction for this tab? Suggest correction