Oops, an error
Loading. Please wait.

Glorious Bass Tab

version 3
version 3

Whole song

Interactive

by Muse
494 views 1 this week
no commentswrite comment
1 2 3 4 5
please rate
add to favorites
launch autoscroll
font size
0
reset
guitar tuner
Autoscroll
slow
fast
+/-
esc
set tempo
stop
Help us to improve Ultimate-Guitar.com Take our survey!
×
Contributor
Difficulty
4useless 2,774
novice
Band: Muse
Song: Glorious
Album: Black Holes And Revelations (japanese edition)
Bassist: Chris Wolstenholme
Tuning: Standard


No bass till 0:27

G|--------------------------------------------------------------------|
D|--------------------------------------------------------------------|
A|--------------------------------------------------------------------|
E|12~---(12)\0~---16~---(16)/4~---(4)/12~---(12)\0~---16~---(16)\4~---|

G|-----------------------------------------|
D|4(x32)---------------44------------------|
A|--------4(x25)--66677----7(x32)--9(x32)--|
E|-----------------------------------------| 

G|--------------------------------------------------------------------|
D|--------------------------------------------------------------------|
A|--------------------------------------------------------------------|
E|12~---(12)\0~---16~---(16)/4~---(4)/12~---(12)\0~---16~---(16)\4~---|

G|-----------------------------------------|
D|4(x32)---------------44------------------|
A|--------4(x25)--66677----7(x32)--9(x32)--|
E|-----------------------------------------|

G|--------|
D|--------|
A|--------|
E|7\------| and no bass till chorus.

Heard that slide? And now there are no lows but almost everybody
plays synth part on bass. Bass comes in on 1:53.

G|----------------|----------------|----------------|----------------|
D|9----9--9----9--|9----9--9----9--|----------------|----------------|
A|----------------|----------------|7----7--7----7--|7----7--7----7--|
E|-777--7--777--7-|-777--7--777--7-|-000--0--000--0-|-000--0--000--0-|

G|----------------|----------------|----------------|----------------|
D|6----6--6----6--|6----6--6----6--|----------------|----------------|
A|----------------|----------------|7----7--7----7--|7----7--7----7--|
E|-444--4--444--4-|-444--4--444--4-|-000--0--000--0-|-000--0--000--0-|

G|----------------|----------------|----------------|----------------|
D|9---9-9-9---9-9-|9---9-9-9---9-9-|----------------|----------------|
A|----------------|----------------|7---7-7-7---7-7-|7---7-7-7---7-7-|
E|-77--7---77--7--|-77--7---77--7--|-00--0---00--0--|-00--0---00--0--|

G|----------------|----------------|----------------|----------------|
D|6---6-6-6---6-6-|6---6-6-6---6-6-|----------------|----------------|
A|----------------|----------------|7---7-7-7---7-7-|7---7-7-7---7-7-|
E|-44--4---44--4--|-44--4---44--4--|-00--0---00--0--|-00--0---00--0--|

Here's some little differences. 

G|------------------------------------------------------------------------|
D|------------------------------------------------------------------------|
A|------------------------------------------------------------------------|
E|12~---(12)\0~---16~---(16)/(4)~---(4)/12~---(12)\0~---16~---(16)\(4)~---|

G|-----------------------------------------|
D|4(x32)---------------44------------------|
A|--------4(x25)--66677----7(x32)--9(x32)--|
E|-----------------------------------------| And straight into chorus

G|----------------|----------------|----------------|----------------|
D|9----9--9----9--|9----9--9----9--|----------------|----------------|
A|----------------|----------------|7----7--7----7--|7----7--7----7--|
E|-777--7--777--7-|-777--7--777--7-|-000--0--000--0-|-000--0--000--0-|

G|----------------|----------------|----------------|----------------|
D|6----6--6----6--|6----6--6----6--|----------------|----------------|
A|----------------|----------------|7----7--7----7--|7----7--7----7--|
E|-444--4--444--4-|-444--4--444--4-|-000--0--000--0-|-000--0--000--0-|

G|----------------|----------------|----------------|----------------|
D|9---9-9-9---9-9-|9---9-9-9---9-9-|----------------|----------------|
A|----------------|----------------|7---7-7-7---7-7-|7---7-7-7---7-7-|
E|-77--7---77--7--|-77--7---77--7--|-00--0---00--0--|-00--0---00--0--|

G|----------------|----------------|----------------|----------------|
D|6---6-6-6---6-6-|6---6-6-6---6-6-|----------------|----------------|
A|----------------|----------------|7---7-7-7---7-7-|7---7-7-7---7-7-|
E|-44--4---44--4--|-44--4---44--4--|-00--0---00--0--|-00--0---00--0--|

G|-------------------------------------------------|--------|
D|--------4(x32)---------------44------------------|--------|
A|7(x32)----------4(x25)--66677----7(x32)--9(x32)--|--------|
E|-------------------------------------------------|7~------|

/  slide up
\  slide down
h  hammer-on
p  pull-off
~  let ring
Suggest correction new What's this?
You can suggest a correction to this tab. Community and Mods will review your correction and vote to approve or reject it.
comments
We did not receive enough feedback on this tab! Please rate:
print report bad tab
1 2 3 4 5
guest
You may want to rate the tab now too:
select rating
Please do not post tabs as comments. Select "correction" instead!