Oops, an error
Loading. Please wait.

Glorious Bass

version 3
version 3

Whole song

Interactive

by Muse
608 views 1 this week
no commentswrite comment
1 2 3 4 5
3 more votes to show rating
add to favorites
launch autoscroll
font size
0
reset
guitar tuner
Autoscroll
slow
fast
+/-
esc
set tempo
stop
Author
Difficulty
novice
Band: Muse
Song: Glorious
Album: Black Holes And Revelations (Japanese edition / Updated 09 version on Spotify)
Bassist: Chris Wolstenholme
Tuning: Standard


[0:27] Intro and verse:
                                                                        |
G|--------------------------------------------------------------------| |
D|--------------------------------------------------------------------| |
A|--------------------------------------------------------------------| |
E|12~---(12)\0~---16~---(16)/4~---(4)/12~---(12)\0~---16~---(16)\4~---| |
                                                                        | x2
G|-----------------------------------------|                            |
D|-----------------------------------------|                            |
A|9(x32)--4(x25)--6667799--7(x32)--9(x32)--|                            |
E|-----------------------------------------|                            |
                                                                        |
G|--------|
D|--------|
A|--------|    ...and no bass till pre-chorus. Do not let that
E|7\------|        synth part confuse You. That's not a bass.


[1:54] Pre-chorus:

G|----------------|----------------|----------------|----------------|
D|9----9--9----9--|9----9--9----9--|----------------|----------------|
A|----------------|----------------|7----7--7----7--|7----7--7----7--|
E|-777--7--777--7-|-777--7--777--7-|-000--0--000--0-|-000--0--000--0-|

G|----------------|----------------|----------------|----------------|
D|6----6--6----6--|6----6--6----6--|----------------|----------------|
A|----------------|----------------|7----7--7----7--|7----7--7----7--|
E|-444--4--444--4-|-444--4--444--4-|-000--0--000--0-|-000--0--000--0-|

{2:13] Chorus:

G|----------------|----------------|----------------|----------------|
D|9---9-9-9---9-9-|9---9-9-9---9-9-|----------------|----------------|
A|----------------|----------------|7---7-7-7---7-7-|7---7-7-7---7-7-|
E|-77--7---77--7--|-77--7---77--7--|-00--0---00--0--|-00--0---00--0--|

G|----------------|----------------|----------------|----------------|
D|6---6-6-6---6-6-|6---6-6-6---6-6-|----------------|----------------|
A|----------------|----------------|7---7-7-7---7-7-|7---7-7-7---7-7-|
E|-44--4---44--4--|-44--4---44--4--|-00--0---00--0--|-00--0---00--0--|

[2:32] Bridge and verse:   

Play this next part more "softly". Also it seems that You don't need to play every
note here like You did before. Play only 12's and just slide on those other notes 
without touching string with Your right hand (or left if You're left-handed). I made
more simplified version of the that slide part for You to understand it better.

G|-----------------------------|----------------------------|
D|-----------------------------|----------------------------|
A|-----------------------------|----------------------------|
E|12~----\0~----16~----\4~----/|12~----\0~----16~----\4~----|

G|-----------------------------------------|
D|-----------------------------------------|
A|9(x32)--4(x25)--6667799--7(x32)--9(x32)--|
E|-----------------------------------------| 

[3:10] Pre-chorus:

G|----------------|----------------|----------------|----------------|
D|9----9--9----9--|9----9--9----9--|----------------|----------------|
A|----------------|----------------|7----7--7----7--|7----7--7----7--|
E|-777--7--777--7-|-777--7--777--7-|-000--0--000--0-|-000--0--000--0-|

G|----------------|----------------|----------------|----------------|
D|6----6--6----6--|6----6--6----6--|----------------|----------------|
A|----------------|----------------|7----7--7----7--|7----7--7----7--|
E|-444--4--444--4-|-444--4--444--4-|-000--0--000--0-|-000--0--000--0-|

G|----------------|----------------|----------------|----------------|
D|9---9-9-9---9-9-|9---9-9-9---9-9-|----------------|----------------|
A|----------------|----------------|7---7-7-7---7-7-|7---7-7-7---7-7-|
E|-77--7---77--7--|-77--7---77--7--|-00--0---00--0--|-00--0---00--0--|

G|----------------|----------------|----------------|----------------|
D|6---6-6-6---6-6-|6---6-6-6---6-6-|----------------|----------------|
A|----------------|----------------|7---7-7-7---7-7-|7---7-7-7---7-7-|
E|-44--4---44--4--|-44--4---44--4--|-00--0---00--0--|-00--0---00--0--|

G|-------------------------------------------------|--------|
D|-------------------------------------------------|--------|
A|7(x32)--9(x32)--4(x25)--6667799--7(x32)--9(x32)--|--------|
E|-------------------------------------------------|7~------|

/  slide up
\  slide down
h  hammer-on
p  pull-off
~  let ring
Suggest correction
Give kudos to tab author, rate the tab!
1 2 3 4 5
comments
print report bad tab
guest
You may want to rate the tab now too:
select rating
Wanna post a correction for this tab? Suggest correction