Oops, an error
Loading. Please wait.

Glorious Tab

version 4
version 4

Whole song

Interactive

by Muse
753 views 3 this week
2 commentsread comments
1 2 3 4 5
please rate
add to favorites
launch autoscroll
font size
0
reset
how to read this tab
guitar tuner
Tab Pro tools
  • play this tab
  • loop segment
  • change instrument
  • show fretboard
  • metronome
×
Best way to learn
"Glorious"
Autoscroll
slow
fast
+/-
esc
set tempo
stop
Contributor
                                Glorious
                                  Muse
             Black Holes and Revelations (Japanese Bonus Track)
                                  2006

Alright guys, this is my first tab so go easy!

Intro

e ----------4-----------4-------------------------------------|
B ----------4-----------4-------------------------------------|
G -9--------4--9--------4-------------------------------------|
D -9--2--6--6--9--2--6--6-------------------------------------|
A -7--2--6--6--7--2--6--6-------------------------------------|
E ----0--4--4-----0--4--4-------------------------------------|

e ------------------------------------------------------------|
B ------------------------------------------------------------|
G ------------------------------------------------------------|
D --9-8-9-11-9-8-9-8-9-11-9-8-9-8-9-11-9-8-9-8-9-11-9---------|
A ---7-7-7--7-----7-7-7--7-----7-7-7--7-----7-7-7--7-8--------|
E ------------------------------------------------------------|

e ------------------------------------------------------------|
B ------------------------------------------------------------|
G ------------------------------------------------------------|
D -9-8-9-11-9-8-9-8-9-11-9-8-9-8-9-11-9-8-9-8-9-11-9-8--------|
A --7-7-7--7---------7--7---------7--7---------7--7-----------|
E ------------------------------------------------------------|

Verse

e ----------4-----------4--------------------------------------|
B ----------4-----------4--------------------------------------|
G -9--9-----4--9--9-----4--------------------------------------|
D -9--9--6--6--9--7--6--6--------------------------------------|
A -7--7--6--6--7--7--6--6--------------------------------------|
E -------4--4--------4--4--------------------------------------|

e ------------------------------------------------------------|
B ------------------------------------------------------------|
G ------------------------------------------------------------|
D --9-8-9-11-9-8-9-8-9-11-9-8-9-8-9-11-9-8-9-8-9-11-9---------|
A ---7-7-7--7-----7-7-7--7-----7-7-7--7-----7-7-7--7-8--------|
E ------------------------------------------------------------|

e ------------------------------------------------------------|
B ------------------------------------------------------------|
G ------------------------------------------------------------|
D -9-8-9-11-9-8-9-8-9-11-9-8-9-8-9-11-9-8-9-8-9-11-9-8-9-11b--|
A --7-7-7--7---------7--7---------7--7---------7--7-----------|
E ------------------------------------------------------------|

Pre-Chorus

e ------------------------------------------------------------|
B ------------------------------------------------------17-18-|
G -8-9-10-11-8-9-10-11-8-9-10-11-12-13-14-15-16-18-19-20------|
D ------------------------------------------------------------|
A ------------------------------------------------------------|
E ------------------------------------------------------------|

e -------------------------------------------------------------|
B -19-20-------------------------------------------------------|
G -------------------------------------------------------------|
D -------------------------------------------------------------|
A -------------------------------------------------------------|
E -------------------------------------------------------------|

Chorus

e -15-14-12-11-15-16-18-19-19-18-16-14-14-12--------------------|
B --------------------------------------------------------------|
G --------------------------------------------------------------|
D --------------------------------------------------------------|
A --------------------------------------------------------------|
E --------------------------------------------------------------|

Interlude (Two guitars)

1st Guitar

e ------------------------------------------------------------|
B ------------------------------------------------------------|
G ------------------------------------------------------------|
D --9-8-9-11-9-8-9-8-9-11-9-8-9-8-9-11-9-8-9-8-9-11-9---------|
A ---7-7-7--7-----7-7-7--7-----7-7-7--7-----7-7-7--7-8--------|
E ------------------------------------------------------------|

2nd Guitar (this is the one Matt plays live)

e -------------------------------------4-4-----4-4-------------|
B -------------------------------------4-4-----4-4-------------|
G -9-9-9-9-9-9-9-9---------------------4-4-----4-4-------------|
D -9-9-9-9-9-9-9-9-2-2-2-2-2-2-2-2-6-6-6-6-6-6-6-6-------------| x2
A -7-7-7-7-7-7-7-7-2-2-2-2-2-2-2-2-4-4-4-4-4-4-4-4-------------|
E -----------------0-0-0-0-0-0-0-0-4-4-4-4-4-4-4-4-------------|

Then back to:

e ------------------------------------------------------------|
B ------------------------------------------------------------|
G ------------------------------------------------------------|
D --9-8-9-11-9-8-9-8-9-11-9-8-9-8-9-11-9-8-9-8-9-11-9---------|
A ---7-7-7--7-----7-7-7--7-----7-7-7--7-----7-7-7--7-8--------|
E ------------------------------------------------------------|

e ------------------------------------------------------------|
B ------------------------------------------------------------|
G ------------------------------------------------------------|
D -9-8-9-11-9-8-9-8-9-11-9-8-9-8-9-11-9-8-9-8-9-11-9-8-9-11b--|
A --7-7-7--7---------7--7---------7--7---------7--7-----------|
E ------------------------------------------------------------|

Pre-Chorus

 -------------------------------------------------------------|
B ----------------------------------17-18-19-20---------------|
G -8-9-10-11-12-13-14-15-16-18-19-20--------------------------|
D ------------------------------------------------------------|
A ------------------------------------------------------------|
E ------------------------------------------------------------|

Chorus

Chorus

e -15-14-12-11-15-16-18-19-19-18-16-14-14-12--------------------|
B --------------------------------------------------------------|
G --------------------------------------------------------------|
D --------------------------------------------------------------|
A --------------------------------------------------------------|
E --------------------------------------------------------------|

Outro

e ---------------------------------------------------------------|
B ---------------------------------------------------------------|
G ---------------------------------------------------------------|
D -9-8-9-11-9-8-9-8-9-11-9-11-11-9-11-13-11-9--------------------|
A --7-7-7--7-----7-7-7----------9-9--9--9------------------------|
E ---------------------------------------------------------------|

e ---------------------------------------------------------------|
B ---------------------------------------------------------------|
G ---------------------------------------------------------------|
D -11-9-11-13-11-13-14-13-11-9-11-13-14-13-11-9-9----------------|
A ---9-9--9--9--------9--9--9-9--------9--9--9-9-----------------|
E ---------------------------------------------------------------|

e ---------------------------------------------------------------|
B ---------------------------------------------------------------|
G --------------------------------------------------11-----------|
D -11-13-14-13-11-9-11-13-14-13-11-9-11-13-14-13-14----14-13-----|
A ---------9--9--9-9--------9--9--9-9--------9--9--9--9--9--9----|
E ---------------------------------------------------------------|

e ---------------------------------------------------------------|
B ---------------------------------------------------------------|
G ----------11-------9-------------------------------------------|
D -14-13-14----14-13-9-------------------------------------------|
A ---9--9--9--9--9---7-------------------------------------------|
E ---------------------------------------------------------------|

                             ^
                             |
                             |

                      This bit isn't right but it's only a small thing. I end the song
like this but if you want to try and learn the real ending I'm sure it's between the 9th
and 14th frets on the A,D and G strings. Hope you guys enjoyed this :)Any corrections 
just leave in the comments.
comments
We did not receive enough feedback on this tab! Please rate:
print report bad tab
1 2 3 4 5
2 comments total.
0 reply
619willp wrote on September 25 2011, 07:17 pm

UPDATE: Okay part of the intro is WRONG. It actually should go:

e 4
B 4
G 9 4
D 9 2 6 6
A 7 2 6 6
E 0 4 4

And the verse should be:

e 4
B 4
G 9 9 4
D 9 9 6 6
A 7 7 6 6
E 4 4

0 reply
619willp wrote on September 25 2011, 07:22 pm

Okay for some reason that just screwed up. I'll try again.

Intro:

e----------4
B----------4
G-9--------4
D-9--2--6--6
A-7--2--6--6
E----0--4--4

And the verse:

e-------4
B-------4
G-9-9---4
D-9-9-6-6
A-7-7-6-6
E-----4-4

I want to post or [tab]
guest
You may want to rate the tab now too:
select rating
Please do not post tabs as comments. Select "correction" instead!