Oops, an error
Loading. Please wait.

Guiding Light Tab

version 2
version 2

Whole song

Interactive

by Muse
9,355 views 1 this week
4 commentsread comments
1 2 3 4 5
worth learning
x 5
add to favorites
launch autoscroll
font size
0
reset
how to read this tab
guitar tuner
Tab Pro tools
  • play this tab
  • loop segment
  • change instrument
  • show fretboard
  • metronome
Autoscroll
slow
fast
+/-
esc
set tempo
stop
Contributor
THE RESISTANCE
Guiding Light Solo

Listen to the song to get timing down. Pretty straight forward song. ENJOY!
e-----------------------------------------------------------------------------|
B---------------------------------------------------------------------5---5---|
G------0-4-4b-2--2-0------------------------------55555555-77777777--7b-7b--7-|
D----2---------------2-0------------------------------------------------------|
A--3---------------------5--3-2-------------7-8-9-----------------------------|
E------------------------------3-357578789------------------------------------|

e-----------------------------------8b-----|
B-----6----6------5---5-----3---3--11b-----|
G-5----------------------------------------|
D---7b--7b---7-5b---5b--5-3b--3b--3--------|
A------------------------------------------|
E------------------------------------------|
comments
print report bad tab
4 comments total. Showing first comments.
0 reply
=bert= wrote on September 13 2009, 07:31 am

theres definitly a pinch harmonic on the last note after the sweep picking bit

0 reply
Nigel Kelly wrote on September 13 2009, 03:14 pm

That pinch harmonic is just Matt's Fernandes Sustainer

0 reply
rsheridan wrote on September 15 2009, 10:28 am

The descending pattern...on the D string it should be 3 2, not 2 0. Otherwise decent tab, think its played higher up the frets(like starts on 8th fret on E string) to give it a heavier sound

I want to post or [tab]
guest
You may want to rate the tab now too:
select rating
Please do not post tabs as comments. Select "correction" instead!