Oops, an error
Loading. Please wait.

Guiding Light Tab

version 4
version 4

Whole song

Interactive

by Muse
15,722 views 18 this week
no commentswrite comment
1 2 3 4 5
x 4
add to favorites
launch autoscroll
font size
0
reset
how to read this tab
guitar tuner
Autoscroll
slow
fast
+/-
esc
set tempo
stop
Help us to improve Ultimate-Guitar.com Take our survey!
×
Author
Difficulty
intermediate
Guiding Light Solo
Muse
The Resistance
Tabbed by FlySWATER 09/20/2009
Standard: EADGBe

e-----------------------------------------------------------------------|
B-----------------------------------------------------------------------|
G-----------------------------------------------------------------------|
D-----------------------------------------------------------------------|
A------3v----7v----10v----14v--14br14-12--------------------------------|
E-20/0--------------------------------------15-13-12-10v--5-7-8v-8v-----|

e-------------------------------------------12-12-12-12------13-13------|
B------------------------------/13v--/15t---15b---15b-------------------|
G-------------------------------------------------------14-14-----------|
D---------------------2-3-5*v-------------------------------------------|
A---0-2-0-2-3-5-2-3-5---------------------------------------------------|
E-3---------------------------------------------------------------------|

e-------13-13------12-12-----12-12-----10-10-------|
B----------------------------------------------13--|(tremolo pick till end)
G-14-14-------12-12-----12-12-----10-10-----10/15b-|(tremolo pick till end)
D--------------------------------------------------|
A--------------------------------------------------|
E--------------------------------------------------|

Legend:
v - vibrato
t - tremolo picking
/ - slide
* - pinch harmonic
Suggest correction
comments
print report bad tab
guest
You may want to rate the tab now too:
select rating
Wanna post a correction for this tab? Suggest correction