Oops, an error
Loading. Please wait.

Haarp Tab

version 2
version 2

Whole song

by Muse
8,088 views 6 this week
6 commentsread comments
1 2 3 4 5
excellent!
x 4
add to favorites
launch autoscroll
font size
0
reset
how to read this tab
guitar tuner
Tab Pro tools
  • play this tab
  • loop segment
  • change instrument
  • show fretboard
  • metronome
×
Best way to learn
"Haarp"
Autoscroll
slow
fast
+/-
esc
set tempo
stop
Contributor
Difficulty
Tuning
intermediate
D A D G B E
this is the riff just after Stockholm Syndrome, if you don't have an internal fuzz pedal
or a MIDI strip, you'll have to improvise. I use ernie ball, super heavy, guage strings.
I know Matt hits just the D string, but I find that if you hit all three strings
(DAD), it has a much heaver sound.

(h) Hammer On  (p) Pull Off  (b) Bend (v) Vibrato
Tuning: Drop D

E|-----------------------------------------------------------------------------------|
B|--14--h15p14h15p14h15p14-----continue-----scale--------turn toggle----turn stab----|
G|------------------------------using------improv--2(v)--for fuzz------on fuzz-------|
D|-----------------------------MIDI Strip----then---------pedal to------pedal--------|
A|-----------------------------------------------------on position--- 25%------------|
D|-----------------------------------------------------------------------------------|

then

E|---------------------------------------------------------------------------------|
B|-----------------turn stab-----------------turn stab-----------------turn stab---|
G|-----------------on fuzz------------------on fuzz------------------on fuzz-------|
D|--0--0--3-0-0----pedal-----0--0--3-0-0----pedal-----0--0--3-0-0---pedal----------|
A|--0--0--3-0-0----25%------0--0--3-0-0----50%------0--0--3-0-0---75%--------------|
D|--0--0--3-0-0-------------0--0--3-0-0-------------0--0--3-0-0--------------------|

E|--------------------------------------------------------------------------|
B|--------------------------------------------------------------------------|
G|--------------------------------------------------------------------------|
D|--0--0--3-0-0---12-12-12-12-12-12-12--0--0--3-0-0---12-12-12-12-12-12-12--|
A|--0--0--3-0-0---12-12-12-12-12-12-12--0--0--3-0-0---12-12-12-12-12-12-12--|
D|--0--0--3-0-0---12-12-12-12-12-12-12--0--0--3-0-0---12-12-12-12-12-12-12--|

repeat  x4
then

E|------------------------ ---------|
B|-------------------------- -------|
G|----------------------------------|
D|--0--0--3-0-3(b)------------------|
A|--0--0--3-0-3(b)--1/2 step--------|
D|--0--0--3-0-3(b)------------------|

E|---------------------------------------------------x-x-x-x-x-x-x-x-x-x-x----|
B|---------------------------------------------------x-x-x-x-x-x-x-x-x-x-x----|
G|---------------------------------------------------x-x-x-x-x-x-x-x-x-x-x----|
D|--0-3-0-5-0-3-0-0-3-0---------------0-3-0-5-0-3-0--x-x-x-x-x-x-x-x-x-x-x----|
A|-----------------------2*-2*-2*-2*------------------x-x-x-x-x-x-x-x-x-x-x---|
D|---------------------------------------------------x-x-x-x-x-x-x-x-x-x-x----|

E|----------------------------------------------------|
B|----------------------------------------------------|
G|----------------------------------------------------|
D|--0-3-0-5-0-3-0-0-3-0-6-6-0-3-0-5-0-3---------------|
A|------------------------------------------full-- ---|
D|--------------------------------------3(b)-step-----|

E|-------------------------------------------------------------x- I-x----------|
B|-------------------------------------------------------------x-M-x-----------|
G|-------------------------------------------------------------x-P-x-----------|
D|--0--3--0--5--0--3--0--0--3--0--6--6--0--3--0--5--0--3--0----x-R-x-----------|
A|--0--3--0--5--0--3--0--0--3--0--6--6--0--3--0--5--0--3--0----x-O-x------ ----|
D|--0--3--0--5--0--3--0--0--3--0--6--6--0--3--0--5--0--3--0----x-V-x---- -- ---|

repeat 4x
then

E|--------------------------------|
B|--------------------------------|
G|------------------------------ -|
D|--0--3--0--5--0--3------ 0------|
A|--0--3--0--5--0--3-hold--0------|
D|--0--3--0--5--0--3------ 0------|

the rest is pretty much improvisation and detuning.

E|---------x-I--x---------x-I--x--------x-I-x----------x-I-x-------------------|
B|---------x-M-x---------x-M-x--------x-M-x---------x-M-x----------------------|
G|---------x-P-x---------x-P-x---------x-P-x---------x-P-x---------------------|
D|--0-0-0--x-R-x--0-0-0--x-R-x--0-0-0--x-R-x--0-0-0--x-R-x---------------------|
A|--0-0-0--x-O-x--0-0-0--x-O-x--0-0-0--x-O-x-0-0-0--x-O-x----------------------|
E|--0-0-0--x-V-x--0-0-0--x-V-x--0-0-0--x-V-x--0-0-0--x-V-x---------------------|

enjoi.


-eARL
comments
print report bad tab
6 comments total. Showing first comments.
0 reply
The Gore Child wrote on June 17 2008, 01:52 pm

Very good! Just wish I had a Fuzz Factory or whatever to do those mega squeals...

0 reply
axlanian wrote on July 23 2008, 06:32 pm

After this part...
E|----------------------------------|
B|----------------------------------|
G|----------------------------------|
D|12-12-12-12-12-12-12--0--0--3-0-0-|
A|12-12-12-12-12-12-12--0--0--3-0-0-|
D|12-12-12-12-12-12-12--0--0--3-0-0-|

You forgot the bends (like, g & b strings on 7 or something...), but other wise good and exactly what I play.
4/5'd!

0 reply
dantallica wrote on November 23 2008, 11:18 am

awesome thanks!

I want to post or [tab]
guest
You may want to rate the tab now too:
select rating
Please do not post tabs as comments. Select "correction" instead!