Oops, an error
Loading. Please wait.

Hoodoo Tab

version 3
version 3

Whole song

Interactive

by Muse
2,878 views 6 this week
no commentswrite comment
1 2 3 4 5
please rate
add to favorites
launch autoscroll
font size
0
reset
how to read this tab
guitar tuner
Autoscroll
slow
fast
+/-
esc
set tempo
stop
Help us to improve Ultimate-Guitar.com Take our survey!
×
"Hoodoo"
Muse
Black Holes and Revelations album
tabbed by TimE.

My favorite Muse song so far. This is a reworked 
combination of other tabs I've found. It's not the 
whole song but I'm pretty sure it's almost 100% 
correct.

 e|---------------------------------------------------|
 b|---------------------------------------------------|
 g|---------------------------------------------------|
 d|---------------------------------------------------|
 a|-10h11p10----10-10-10-11-13-11-10-----10h11p10-----|
 e|----------------------------------13---------------|

|---------------------------------------------------|
|---------------------------------------------------|
|---------------------------------------------------|
|---------------------------------------------------|
|--10-10-10--11-10-------------10h11p10-------------|
|------------------13-11-10-11----------------------|

|-------------------------|
|-------------------------|
|-------------------------|
|-----(long slide)--------|
|---15\0------------------|
|-------------------------|


          (repeat this riff twice)
|-------------------------------------------|
|-------------------------------------------|
|-------------------------------------------|
|--5-55-5-55--5-5----6-66-6-66--6-6---------|
|--5-55-5-55--5-5----6-66-6-66--6-6---------|
|--3-33-3-33--3-3----4-44-4-44--4-4---------|


|---------------------------------------------------|
|---------------------------------------------------|
|---------------------------------------------------|
|--5------------------------------------------------|
|--5----------------(gradually slow down)-----------|
|--3----3h4p3h4p3h4p3h4p3h4p3h4p3h4p3h4p3-----------|



|---------------------8-------------------|
|---------------------8-------------------|
|---------------------8-------------------|
|---------------------10------------------|
|---------------------10------------------|
|---3-3-3-4-6-4-3/----8-------------------|
                         "Come into my life"


|-----------4-----------------------|
|-----------6-----------------------|
|--------5--5-----------------------|
|--3--6-----------------------------|
|-----------------------------------|
|-----------------------------------|
               "Regress into a dream"


|--3-----------------------------------3----------|
|--4-----------------------------------3----------|
|--3-----------------------------------4----------|
|--5-----------------------------------5----------|
|-------------------------------------------------|
|-----------------------------6--4--3-------------|
               "We will hide"



|-------------------------8---------|
|-------------------------8---------|
|-------------------------8---------|
|-------------------------10--------|
|-------------------------10--------|
|------------------(3)/---8---------|
  "Build a new reality"


That's about all I have so far. A bit of it repeats.
Here is what I think the end sounds like but I 
haven't checked it yet. But it sounds good.

|----------------------------------------|
|----------------------------------------|
|----------------------------------------|
|----------------------------------------|
|----------------------------------------|
|--8h9p8----8-8-8-9-11-9-8-6--8h9p8------|


|----------------------3------8-------|
|----------------------3------8-------|
|----------------------4------8-------|
|----------------------5------10------|
|-----------------------------10------|
|--8-8-8-9-8-6--4-------------8-------|


Other lyrics:

Draw another picture
Of the life you could've had
Follow your instincts
And choose the other path

You should never be afraid
You're protected from trouble and pain
Why, why
Is this a crisis in your eyes again


Come to be
How did it come to be
Tied to a railroad
No-one to set us free
Watch our souls fade away
And our bodies crumbling
Don't be afraid

I will take the blow for you

And I've had recurring nightmares
That I was loved for who I am
And missed the opportunity
To be a better man


Enjoy. Hope it proved useful.
-Tim (dufiant@hotmail.com)
Suggest correction
Give kudos to tab author, rate the tab!
1 2 3 4 5
comments
print report bad tab
guest
You may want to rate the tab now too:
select rating
Wanna post a correction for this tab? Suggest correction