Oops, an error
Loading. Please wait.

Host Tab

version 1
version 1

Whole song

Interactive

by Muse
9,988 views 15 this week
2 commentsread comments
1 2 3 4 5
accurate
x 7
add to favorites
launch autoscroll
font size
0
reset
how to read this tab
guitar tuner
Tab Pro tools
  • play this tab
  • loop segment
  • change instrument
  • show fretboard
  • metronome
×
Best way to learn
"Host"
Autoscroll
slow
fast
+/-
esc
set tempo
stop
Contributor
Artist:Muse
Title:Host
Album:Cave Single


This is a b-side from the Cave single, which strangely didn't have a video. This song is fun to play and is relatively 
easy. Sounds better with distortion.Enjoy!!!

Intro & Verse :

    Am                                 C                                Am               E               Am
E|---------0--------------0--------------0-------------0----------------0---------------0------------------0----- 
B|---------1--------------0--------------1-------------0----------------1---------------0------------------1----- 
G|---------2--------------1--------------0-------------1---------------2----------------1------------------2----- 
D|----2---------------2--------------2--------------2-------------2---------------------2-------------2---2------
A|-0-----------0--2-----------2--3----------3--2----------2--0------------0-------2-------------0---------------- 
E|---------------------------------------------------------------------------------0------------0----------------

When it starts " my trust in you..... " :

   C                                     B                 D                                 A          Am               
----------------0---------------0------------------0-------0---0----------------1-------------0---------0---0--- 
----------------1---------------0------------------3-------3-------3------------2-------------2---------1---1--- 
----------------0---------------1------------2----2---2---2--------------------2-------------2---------2---2---- 
------------2-------------------2-------0-----------------------------------2---2-------2----2------2--2---2---- 
--0-2-3-----------3-------2-------2-----------------------------------0-------------0------------0-------------- 
------------------------0---------------------------------------------------------------------------------------


Bridge :

------------------------------------------------- 
-------------------------------------------------
--5-5-5-5---------------------------------------- 
--5-5-5-5---2-2-2-2--3-3-3-3---5-5-5-5----------- 
--3-3-3-3---2-2-2-2--3-3-3-3---5-5-5-5----------- 
--------------0-0-0-0--1-1-1-1---3-3-3-3---------

Outro:

----0-0-0-0------------------------------------------------------------------------------------------- 
----1-1-1-1--------------------------------------1-1-1-1---------------------------------------------- 
----2-2-2-2----4-4-4-4--5-5-5-5--4-4-4-4--2-2-2-2-----------------------------2--2--4-4--5-5--7--7---- 
----2-2-2-2----4-4-4-4--5-5-5-5--4-4-4-4--2-2-2-2---5--3--2--2--2---2-----2--2--4-4--5-5--7--7--------
----0-0-0-0----2-2-2-2--3-3-3-3--2-2-2-2--0-0-0-0---5--3--2--2--2---2-----0--0--2-2--3-3--5--5-------- 
---------------------------------------------------------------3--1--0--0--0---0----------------------

Lyrics

I've read you well,                 
i just want to get away,
cos you used my love,
i just need to get away,
my trust in you has been abused,     
my trust in you has overused

sick of this space,
wish we could be far away,
cos i wasted all my youth, 
i'll never see it again,
my trust in you has been abused,
my trust in you has been overused

i just wanted too much,
wish we could be far away,
and if my wish comes true,
you'll never see me again
comments
print report bad tab
2 comments total.
0 reply
xxxdarkcrowxxx wrote on April 8 2002, 12:00 am

very nice tabbed,only the outro is not 100 procent right but great job.

0 reply
Gaz_m2k5 wrote on February 18 2007, 12:54 pm

if you just fixed that outro part which youve messed up on wordpad or whatever, then it would be good.

I want to post or [tab]
guest
You may want to rate the tab now too:
select rating
Please do not post tabs as comments. Select "correction" instead!