Oops, an error
Loading. Please wait.

Host Bass Tab

version 2
version 2

Whole song

Interactive

by Muse
1,297 views 1 this week
2 commentsread comments
1 2 3 4 5
1 last vote to show rating
add to favorites
launch autoscroll
font size
0
reset
guitar tuner
Autoscroll
slow
fast
+/-
esc
set tempo
stop
Help us to improve Ultimate-Guitar.com Take our survey!
×
Author
Difficulty
novice
Band: Muse
Song: Host
Album: Cave (single) CD2
Bassist: Chris Wolstenholme
Tuning: Standard

No bass until 1:10

Verse:

G|-------------------|
D|-------------------|
A|0-22-3-22-0---0-00-|
E|------------0------| x2

G|-----------------------|----------------|
D|-----------------------|----------------|
A|3-7-5-55-0-00-0--0-002-|3-7-5-55-0-00-0-|
E|-----------------------|----------------|

Chorus:

G|--------|--------|--------|--------|
D|--------|--------|--------|--------|
A|33333333|--------|--------|--------|
E|--------|00000000|11111111|33333333|

G|-------|-------|-------|-------|
D|-------|-------|-------|-------|
A|3-3-3-3|-------|-------|-------|
E|-------|0-0-0-0|1-1-1-1|3-3-3-3|x7


G|-------|-------|-------|-------|
D|-------|-------|-------|-------|
A|0~-----|-------|-------|2/7----|
E|-------|-------|-------|-------|

G|------------------------|
D|7-9-10-12-14-14\2-7--77-|
A|------------------------|
E|------------------------|

G|--------|--------|--------|--------|--------|--------|
D|--------|--------|--------|--------|--------|--------|
A|00000000|22222222|33333333|22222222|00000000|--------|
E|--------|--------|--------|--------|--------|00000000|

It's a guitar part, but you can    --|--------|--------| 
try it for fun. It sounds funy.    --|--------|--------|
                                   22|0000-0--|--------|
                                   --|------31|00000000|
G|--------|---------|
D|--------|---------|
A|00002222|333355555|
E|--------|---------|

G|--------|--------|--------|--------|
D|--------|--------|--------|--------|
A|00000000|22222222|33333333|55555555|
E|--------|--------|--------|--------|

G|--------|--------|--------|--------|--------|
D|--------|--------|--------|--------|--------|
A|7~------|--------|0~------|10h12~--|0~------|
E|--------|0~------|--------|--------|--------|

Hope that You'll find this tab useful. Please rate and check out other
MUSE tabs tabbed by me.                                        

/  slide up
\  slide down
h  hammer-on
p  pull-off
~  let ring
Suggest correction
Give kudos to tab author, rate the tab!
1 2 3 4 5
comments
print report bad tab
2 comments total.
0 reply
Bootus 10 Nov 22, 2008 10:15 AM

Nice one!

0 reply
cm261 30 Jan 02, 2009 11:52 AM

Should this:

G|-------------------|
D|7-9-10-12-14-14\9\7|
A|-------------------|
E|-------------------|

say:

G|-------------------|
D|7-9-10-12-14-14\9--|
A|------------------7|
E|-------------------|

Great tab dude!!

guest
You may want to rate the tab now too:
select rating
Wanna post a correction for this tab? Suggest correction