Oops, an error
Loading. Please wait.

House Of The Rising Sun Tab

version 3
version 3

Whole song

Interactive

by Muse
2,703 views 3 this week
3 commentsread comments
1 2 3 4 5
1 last vote to show rating
add to favorites
launch autoscroll
font size
0
reset
how to read this tab
guitar tuner
Autoscroll
slow
fast
+/-
esc
set tempo
stop
Help us to improve Ultimate-Guitar.com Take our survey!
×
Author
Difficulty
Artist: Muse

Album: B-Sides ( 1Love )

Song: House Of The Rising Sun

______________________________


Intro
                              X4
G||--------------------------|
D||--------------------------|
A||--------------------------|
E||--XXXX-X-X-X-XXXXX-X-X-X--|

Intro-Verse

G||--------------------------------------------------------------|
D||--------------------------------------------------------------|
A||-12-12-12-12-12-12-10-10-10-10-10-10-9-9-9-9-9-9-8-8-8-8-8-8--|
E||--------------------------------------------------------------|

G||-------------------------------------------------|
D||------------------------7-7-7-7-7-7--------------|
A||7-7-7-7-7-7-7-7-7-7-7-7-------------7-7-7-7-7-7--|
E||-------------------------------------------------|

Verse

G||-----------------------------------------------------------|
D||-----------------------------2-----------------------------|
A||--0-0-0-0-0-0--2--3-3-3-3-3-----5-5-5-5-5------------------|
E||-------------------------------------------0--1-1-1-1-1-1--|

G||------------------------------------------------------------|
D||------------------------------------------------------------|
A||-----0-0-0-0-0--2--3-3-3-3-3--5--7-7-7-7-7-7-57-7-7-57-7-7--|
E||--3---------------------------------------------------------|

G||-----------------------------------------------------------|
D||-----------------------------2-----------------------------|
A||--0-0-0-0-0-0--2--3-3-3-3-3-----5-5-5-5-5------------------|
E||-------------------------------------------0--1-1-1-1-1-1--|

G||------------------------------|
D||------------------------------|
A||-----0-0-0-0-0-0--------------|
E||--3--------------0-0-0-0-0-0--|

Intro-Verse 2

G||--------------------------------------------------------------|
D||--------------------------------------------------------------|
A||-12-12-12-12-12-12-10-10-10-10-10-10-9-9-9-9-9-9-8-8-8-8-8-8--|
E||--------------------------------------------------------------|

G||-------------------------------------------------|
D||------------------------7-7-7-7-7-7--------------|
A||7-7-7-7-7-7-7-7-7-7-7-7-------------7-7-7-7-7-7--|
E||-------------------------------------------------|

Verse 2

G||-----------------------------------------------------------|
D||-----------------------------2-----------------------------|
A||--0-0-0-0-0-0--2--3-3-3-3-3-----5-5-5-5-5------------------|
E||-------------------------------------------0--1-1-1-1-1-1--|

G||------------------------------------------------------------------|
D||-------------------------------------------------------5----------|
A||-----0-0-0-0-0--2--3-3-3-3-3--5--7-7-7-7-7-7-57-7-7-57---7-5------|
E||--3----------------------------------------------------------8-5--|

G||-----------------------------------------------------------|
D||-----------------------------2-----------------------------|
A||---------------2--3-3-3-3-3-----5-5-5-5-5------------------|
E||--5-5-5-5-5-5------------------------------0--1-1-1-1-1-1--|

G||------------------------------|
D||------------------------------|
A||-----0-0-0-0-0-0--------------|
E||--3--------------0-0-0-0-0-0--|

Intro-Verse 3

G||--------------------------------------------------------------|
D||--------------------------------------------------------------|
A||-12-12-12-12-12-12-10-10-10-10-10-10-9-9-9-9-9-9-8-8-8-8-8-8--|
E||--------------------------------------------------------------|

G||-------------------------------------------------|
D||------------------------7-7-7-7-7-7--------------|
A||7-7-7-7-7-7-7-7-7-7-7-7-------------7-7-7-7-7-7--|
E||-------------------------------------------------|

Interlude (Guitar Noise)

Verse 2

G||-----------------------------------------------------------|
D||-----------------------------2-----------------------------|
A||--0-0-0-0-0-0--2--3-3-3-3-3-----5-5-5-5-5------------------|
E||-------------------------------------------0--1-1-1-1-1-1--|

G||----------------------------------------------------------|
D||----------------------------------------------------------|
A||-----0-0-0-0-0--2--3-3-3-3-3--5--7-7-7-7-7-7-7-7-7-7-7-7--|
E||--3-------------------------------------------------------|

G||-----------------------------------------------------------|
D||-----------------------------2-----------------------------|
A||---------------2--3-3-3-3-3-----5-5-5-5-5------------------|
E||--5-5-5-5-5-5------------------------------0--1-1-1-1-1-1--|

G||------------------------------|
D||------------------------------|
A||-----0-0-0-0-0-0--------------|
E||--3--------------0-0-0-0-0-0--|

(wait)

Ending Riff
                              X4
G||--------------------------|
D||--------------------------|
A||--------------------------|
E||--XXXX-X-X-X-XXXXX-X-X-X--|


Tab by: Pedro Zappa
Suggest correction
Give kudos to tab author, rate the tab!
1 2 3 4 5
comments
print report bad tab
3 comments total.
+1 reply
Raydey 40 Sep 18, 2006 05:10 PM

This really should be a bass tab, and not a normal tab

+1 reply
Muse4Muse 10 Dec 02, 2007 06:43 AM

Great tab man... just put it on the right category...

+1 reply
OLP.Z 10 Oct 15, 2009 07:45 AM

ur an idiot

guitar u dope

guest
You may want to rate the tab now too:
select rating
Wanna post a correction for this tab? Suggest correction