Oops, an error
Loading. Please wait.

Hyper Chondriac Music Tab

version 1
version 1

Whole song

Interactive

28,071 views 30 this week
1 commentread comment
1 2 3 4 5
x 23
add to favorites
launch autoscroll
font size
0
reset
how to read this tab
guitar tuner
×
Best way to learn
"Hyper Chondriac Music"
Autoscroll
slow
fast
+/-
esc
set tempo
stop
Author
Standard Tuning
No Capo

(Gtr 1)
    Gm              Dm              C               Cm
e|--3-3-3-3-3-3-3-3-5-5-5-5-5-5-5-5-----------------3-3-3-3-3-3-3-3---------------|
B|--3-3-3-3-3-3-3-3-6-6-6-6-6-6-6-6-5-5-5-5-5-5-5-5-4-4-4-4-4-4-4-4---------------|
G|--3-3-3-3-3-3-3-3-7-7-7-7-7-7-7-7-5-5-5-5-5-5-5-5-5-5-5-5-5-5-5-5---------------|
D|--5-5-5-5-5-5-5-5-7-7-7-7-7-7-7-7-5-5-5-5-5-5-5-5-5-5-5-5-5-5-5-5---------------|
A|--5-5-5-5-5-5-5-5-5-5-5-5-5-5-5-5-3-3-3-3-3-3-3-3-3-3-3-3-3-3-3-3---------------|
E|--3-3-3-3-3-3-3-3---------------------------------------------------------------|

Keep repeating this all the way through.

(Gtr 2) joins in with the following at 0:28
    Gm                Dm                C                Cm
e|----------------------0-----------------0-------------------------------------|
B|---------3--------------3-----------------3------5--3-------------------------|
G|-------3------------0-----2-----------0-----2----------5p3p2------------------|
D|-----5----------------------3-----------------3--------------5----------------|
A|---5--------------------------3-----------------------------------------------|
E|------------------------------------------------------------------------------|

    Gm                Dm                C                Cm
e|----------------------0-----------------0-------------------------------------|
B|---------3--------------3-----------------3------5--3-------------------------|
G|-------3------------0-----2-----------0-----2----------5p3p2------------------|
D|-----5----------------------3-----------------3--------------5----------------|
A|---5--------------------------3-----------------------------------------------|
E|------------------------------------------------------------------------------|

After playing this twice, at 0:55 (Gtr 2) stops and Matt starts singing, (Gtr 1) 
playing.

(This solo starts at 2:49)

     Gm               Dm               C               Cm
e|--------------------------------------------------------------------|
B|----------------------------------------------3------3--3---3---3---|
G|-----------------------------------------2-3---------3----3---3-3---|
D|--------------------------------------------------------------------|
A|--9--------10-9-8--------------6-5-3--------------------------------|
E|-----0-0------------------0-0---------------------------------------|

     Gm               Dm               C               Cm
e|--------------------------------------------------------------------|
B|--------------------------------------3----3------15----15----15----|
G|------------------------------------3--3---3/15----15----15---------|
D|--------------------------------------------------------------------|
A|--9-----------10-9-8----/15\--6-5-3---------------------------------|
E|--------------------------------------------------------------------|

     Gm
e|------------------------------------------------------|
B|--15----15----15----15----13----13----11----11----10--|
G|-----15----15----15----15----14----14----12----12-----|
D|------------------------------------------------------|
A|------------------------------------------------------|
E|------------------------------------------------------|

   Dm                      Tremolo Picking
e|------------------------------------------|
B|-10----10----10----10-10/////-11/////-----|
G|----10----10----10----10/////-12/////-----|
D|------------------------------------------|
A|------------------------------------------|
E|------------------------------------------|

   C   Tremolo Picking
e|--------------------------------------------------------------|
B|-13///////////////////////////////---10-10----10----10--------|
G|-12///////////////////////////////---10----10----10-10--------|
D|--------------------------------------------------------------|
A|--------------------------------------------------------------|
E|--------------------------------------------------------------|

   Cm
e|--------------------------------------------------------------|
B|-10-------10----10----10-------10--------15----15----15-------|
G|----10/12----12----12----12-12----12/15-----15----15----------|
D|--------------------------------------------------------------|
A|--------------------------------------------------------------|
E|--------------------------------------------------------------|

   Gm            Dm             C           Cm
e|--------------------------------------------------------------|
B|-15/////-------13/////------11/////------10/////--10-10-10/15-|
G|-15/////-------14/////------12/////------10/////--10-10-10/15-|
D|--------------------------------------------------------------|
A|--------------------------------------------------------------|
E|--------------------------------------------------------------|



************************************

| p  Pull-off
| /  Slide up
| \  Slide down

************************************
Suggest correction
comments
print report bad tab
1 comment total.
+3 reply
ajlinamatluma 10 Jan 27, 2009 09:16 AM

This is some amazing work, thanks wanted to play this for so long

Lina
x

guest
You may want to rate the tab now too:
select rating
Wanna post a correction for this tab? Suggest correction