Oops, an error
Loading. Please wait.
We have an official Hyper Music tab made by UG professional guitarists. Check out the tab »
×
by Muse
52,167 views 39 this week
13 commentsread comments
1 2 3 4 5
x 33
add to favorites
×
Save as Personal and add changes to this tab that will be seen only by you. Learn more ›
×
You can save this tab as Personal to edit and correct it or add notes. All changes will be seen only by you. Learn more »
launch autoscroll
font size
0
reset
guitar tuner
backing track
0:00
0:00
edit
Autoscroll
slow
fast
+/-
esc
set tempo
stop
Muse - Hyper Music Bass Tab

Tuning: D-A-D-G


[Intro]
(Bass starts at 0:16)

G|-----------|
D|-----------|
A|-----------|
D|-12-\-0----|(x4)


[Chorus]
(0:24)

G|----------------------------------|
D|----------------------------------|
A|----5-------3-5------5---2-3-2-1--|
D|-0----0-3-5-------0----0----------|(x8)


[Verse]
(0:44)

G|--------------------------------------------|
D|-0-0-0h2p0-3-3-0h5p0-7-7-0h9p0-10-10-0h12p0-|
A|--------------------------------------------|
D|--------------------------------------------|

G|--------------------------------------------|
D|-5-5-0h5p0-5-5-0h5p0-5-5-0h7p0-8--8--8--0---|
A|--------------------------------------------|
D|---------------------------------------(0)--|(x6)


[Pre-Chorus]
(1:28)

G|------------------|-------------------------|
D|------------------|-------------------------|
A|------------------|-------------------------|
D|-0-0-0-0-0-0-0-0--|-12\0--12\0--12\0--12\0--|


Continue in following order:

Chorus     8x  (1:38)
Vers       4x  (1:58) 
Pre-Chorus 1x  (2:27)
Chorus     16x (2:37)



************************************

| \    Slide down
| h    Hammer-on
| p    Pull-off
| (n)  Ghost note

************************************

            
            
Suggest correction
Creating personal tab
Creating personal tab
You can edit any tab online and save it as your Personal.

You can edit, replace or remove any tab part or add personal notes – all changes will be seen only by you.

Personal tabs can be accessed anytime from any device, even offline.
Learn more »
comments
print report bad tab
13 comments total. Showing first comments. show 1 bad comment
0 reply
Jlife13300 31 Jan 21, 2007 03:44 PM

Uhhh, the chorus sucks badly everything else is somewhat good like instead of it starting with 0-0-0-2 why not start it out with 3 instead of 2, actaully sounds more better that way

0 reply
Amitio 144 Apr 07, 2007 05:23 PM

Its nothing like how Chris plays its! Part of the verse uses and open A instead of D!

The Parts of the chorus are wrong but there only minor!

Pretty good otherwise!

guest
You may want to rate the tab now too:
select rating
Wanna post a correction for this tab? Suggest correction