Oops, an error
Loading. Please wait.

Hyper Music Bass Tab

version 3
version 3
by Muse
50,229 views 45 this week
13 commentsread comments
1 2 3 4 5
x 32
add to favorites
launch autoscroll
font size
0
reset
guitar tuner
Autoscroll
slow
fast
+/-
esc
set tempo
stop
Help us to improve Ultimate-Guitar.com Take our survey!
×
Author
Muse - Hyper Music Bass Tab

Tuning: D-A-D-G


[Intro]
(Bass starts at 0:16)

G|-----------|
D|-----------|
A|-----------|
D|-12-\-0----|(x4)


[Chorus]
(0:24)

G|---------------------------------|---------------------------------|
D|---------------------------------|---------------------------------|
A|----5-------3-5------5---0-1-0---|----5-------3-5------5---1-0-1-0-|
D|-0----0-3-5-------0----0-------5-|-0----0-3-5-------0----0---------|(x4)


[Verse]
(0:44)

G|--------------------------------------------|
D|-0-0-0h2p0-3-3-0h5p0-7-7-0h9p0-10-10-0h12p0-|
A|--------------------------------------------|
D|--------------------------------------------|

G|--------------------------------------------|
D|-5-5-0h5p0-5-5-0h5p0-5-5-0h7p0-8--8--8--0---|
A|--------------------------------------------|
D|---------------------------------------(0)--|(x6)


[Pre-Chorus]
(1:28)

G|------------------|-------------------------|
D|------------------|-------------------------|
A|------------------|-------------------------|
D|-0-0-0-0-0-0-0-0--|-12\0--12\0--12\0--12\0--|


Continue in following order:

Chorus     4x (1:38)
Vers       4x (1:58) 
Pre-Chorus 1x (2:27)
Chorus     8x (2:37)



************************************

| \    Slide down
| h    Hammer-on
| p    Pull-off
| (n)  Ghost note

************************************
Suggest correction
comments
print report bad tab
13 comments total. Showing first comments.
0 reply
Jlife13300 31 Jan 21, 2007 08:44 PM

Uhhh, the chorus sucks badly everything else is somewhat good like instead of it starting with 0-0-0-2 why not start it out with 3 instead of 2, actaully sounds more better that way

0 reply
Amitio 144 Apr 07, 2007 09:23 PM

Its nothing like how Chris plays its! Part of the verse uses and open A instead of D!

The Parts of the chorus are wrong but there only minor!

Pretty good otherwise!

-2 reply
Stradavus 30 Oct 28, 2007 01:31 PM

Excellent tab! I would like to post a couple very small corrections.

Chorus

G|---------------------------------|---------------------------------|
D|---------------------------------|---------------------------------|
A|----5-------3-5------5---0-1-0---|----5-------3-5------5---1-0-1-0-|
D|-0----0-4-6-------0----0-------5-|-0----0-4-6-------0----0---------|

and

Verse

G|--------------------------------------------|
D|-0-0-0h2p0-3-3-0h5p0-7-7-0h8p0-10-10-0h12p0-|
A|--------------------------------------------|
D|--------------------------------------------|

G|--------------------------------------------|
D|-5-5-0h5p0-5-5-0h5p0-5-5-0h7p0-8--8---------|
A|-------------------------------------0-3-0--|
D|--------------------------------------------|

guest
You may want to rate the tab now too:
select rating
Wanna post a correction for this tab? Suggest correction