Oops, an error
Loading. Please wait.

Hyper Music Bass Tab

version 5
version 5
by Muse
3,749 views 9 this week
1 commentread comment
1 2 3 4 5
x 4
add to favorites
launch autoscroll
font size
0
reset
guitar tuner
Autoscroll
slow
fast
+/-
esc
set tempo
stop
Help us to improve Ultimate-Guitar.com Take our survey!
×
Author
Difficulty
Tuning
intermediate
D A D G B E
Hyper Music

Hey, here is the bass tablature for Hyper Music. Hope you find this helpful, rate ect.. cheers!

INTRO

The song begins with Matt making some spacey guitar noises, listen for when the drums
come in.
The drums play the hi hat four times, once per beat, on the bar before you come in.
You hold down a D for 2 beats, then slide down the neck on the third beat, and rest for
the fourth.
This is done four times, then you mimic the rhythm the guitar is playing, by playing a crotchet,
then a dotted quaver, then a semiquaver, then four quavers; more simply,
the rhythm is 1 beat, then 3/4, then 1/4, then four halves.
After this section, you hold down a low D for 8 beats.
Then, you play another more complex rhythm, which will also be used in the verse; the
first beat is two quavers,
the second beat is a semiquaver, a quaver and a semiquaver
(an easier way to think of this might be four semiquavers, with the middle two tied together),
these two are repeated for beats 3 and 4, beat 3 being quavers and beat 4 being 1/4-1/2-1/4

|-----------------|-----------------|-----------------|-----------------|
|-----------------|-----------------|-----------------|-----------------|
|-----------------|-----------------|-----------------|-----------------|
|-12\-------------|-12\-------------|-12\-------------|-12\-------------| X1
(12 not 1 2)
|-----------------|-----------------|
|-----------------|-----------------|
|-----5--------3-5|-----5--0-2-3-2-1|
|-0------5-3-5----|-0---------------| X4

|-----------------|-----------------|
|-----------------|-----------------|
|-----------------|-----------------|
|-0---------------|-----------------| X1

|-----------------|-2-2--4--5-5--7--|-----------------|------2--3-3-----|
|-0-0--2--3-3--50-|-----0-0-----0-0-|-5-5-050-5-5-050-|-5-5-0-0---------|
|-----0-0-----0---|-----------------|-----------------|-------------440-|
|-----------------|-----------------|-----------------|-----------------| X2

FIRST VERSE

The first verse continues to use the rhythm from the last part of the intro
(1/2-1/2--1/4-1/2-1/4--1/2-1/2--1/4-1/2-1/4) repeated 3 times, then on the 4th time 
round, you play
the same first 2 measures,
then hold down a G for four beats, then rest four a measure
(the measure you rest for is the bit in the song where it goes "just to spit it in your face")

|-----------------|-2-2--4--5-5--7--|-----------------|------2--3-3-----|
|-0-0--2--3-3--50-|-----0-0-----0-0-|-5-5-050-5-5-050-|-5-5-0-0---------|
|-----0-0-----0---|-----------------|-----------------|-------------440-|
|-----------------|-----------------|-----------------|-----------------| X3

|-----------------|-2-2--4--5-5--7--|-----------------|-----------------|
|-0-0--2--3-3--50-|-----0-0-----0-0-|-5---------------|-----------------|
|-----0-0-----0---|-----------------|-----------------|-----------------|
|-----------------|-----------------|-----------------|-----------------| X1

FIRST CHORUS

The first chorus is identical to the first six bars of the intro. The vocals come in on
the third measure.

|-----------------|-----------------|-----------------|-----------------|
|-----------------|-----------------|-----------------|-----------------|
|-----------------|-----------------|-----------------|-----------------|
|-12\-------------|-12\-------------|-12\-------------|-12\-------------| X1

|-----------------|-----------------|
|-----------------|-----------------|
|-----5--------3-5|-----5--0-2-3-2-1|
|-0------5-3-5----|-0---------------| X4

|-----------------|-----------------|
|-----------------|-----------------|
|-----------------|-----------------|
|-0---------------|-----------------| X1

SECOND VERSE

The second verse is identical to the first.

|-----------------|-2-2--4--5-5--7--|-----------------|------2--3-3-----|
|-0-0--2--3-3--50-|-----0-0-----0-0-|-5-5-050-5-5-050-|-5-5-0-0---------|
|-----0-0-----0---|-----------------|-----------------|-------------440-|
|-----------------|-----------------|-----------------|-----------------| X3

|-----------------|-2-2--4--5-5--7--|-----------------|-----------------|
|-0-0--2--3-3--50-|-----0-0-----0-0-|-5---------------|-----------------|
|-----0-0-----0---|-----------------|-----------------|-----------------|
|-----------------|-----------------|-----------------|-----------------| X1

SECOND CHORUS

The second chorus is the same as the first, but without the final two bars.

|-----------------|-----------------|-----------------|-----------------|
|-----------------|-----------------|-----------------|-----------------|
|-----------------|-----------------|-----------------|-----------------|
|-12\-------------|-12\-------------|-12\-------------|-12\-------------| X1

|-----------------|-----------------|
|-----------------|-----------------|
|-----5--------3-5|-----5--0-2-3-2-1|
|-0------5-3-5----|-0---------------| X4

FINAL RIFF

The final riff at the end of the song is similar to the final four measures of the chorus,
with a variation in the last 2, then ending on a low D held for two measures.

|-----------------|-----------------|
|-----------------|-----------------|
|-----5--------3-5|-----5--0-2-3-2-1|
|-0------5-3-5----|-0---------------| X2

|-----------------|-----------------|
|-----------------|-----------------|
|-----5--------3-5|-----5--0-2-3-2-1|
|-0------0-4-5----|-0---------------| X2

|-----------------|-----------------|
|-----------------|-----------------|
|-----------------|-----------------|
|-0---------------|-----------------| X1
Suggest correction
comments
print report bad tab
1 comment total.
0 reply
bobablonde 89 Aug 15, 2014 03:48 PM

Excellent, best version. :-D

guest
You may want to rate the tab now too:
select rating
Wanna post a correction for this tab? Suggest correction