Oops, an error
Loading. Please wait.
We have an official Hysteria tab made by UG professional guitarists. Check out the tab »
×

Hysteria chords

version 3
version 3

Whole song

  • Difference from other versions: intro, preverse ri... Show more

Video

by Muse
3,996 views 21 this week
no commentswrite comment
1 2 3 4 5
x 5
add to favorites
×
Save as Personal and add changes to this tab that will be seen only by you. Learn more ›
×
You can save this tab as Personal to edit and correct it or add notes. All changes will be seen only by you. Learn more »
launch autoscroll
font size
0
reset
transpose
0
reset
simplify chords
display chords
guitar tuner
backing track
0:00
0:00
edit
Autoscroll
slow
fast
+/-
esc
set tempo
stop
Author
Difficulty
About this tab version
Difference from other versions: intro, preverse riff, chord / choices, chords for instrumentals/bridges, corrected lyrics, plays with orig recording. Was this info helpful? Yes No
Strumming
There is no strumming pattern for this song yet. and get +5 IQ
-------------------------------------------------------------------------------
                            Hysteria
-------------------------------------------------------------------------------
             
ARTIST: Muse
ALBUM: Absolution 
YEAR: 2003

tabbed by : pp1pete

CAPO:   0
TUNING: Standard 


Difference from other versions: 
 [intro
 [pre-verse riff
 [chord timing 
 [chord choices
 [chords for instrumentals/bridges 
 [plays with original recording
 [corrected lyrics
 [plays with original recording


---INTRO--- 

   Am  G    Dm  Am  (bass plays here) 

   Am  E7   Dm  Am  (slide on E|) 


---Pre-verse--- 

   Am                                  G ( E7 )
E|-----------------------------------|-------------------------------------|
B|-------------------------12b12--10-|-------------------------12b12--10---|
G|--14--14-14-14--14-14--------------|--13--13-13-13--13-13----------------|
D|--x---x--x--x---x--x---------------|--x---x--x--x---x--x-----------------|
A|--12--12-12-12--12-12--------------|--11--11-11-11--11-11----------------|
E|-----------------------------------|-------------------------------------|


   Dm                                   Am                                   x2
e|-----------------------------------|-------------------------------------|
B|-------------------------12b12--10-|-------------------------12b-12b-12b-|
G|--10--10-10-10--10-10--------------|--9---9--9--9---9--9-----------------|
D|--x---x--x--x---x--x---------------|--x---x--x--x---x--x-----------------|
A|--8---8--8--8---8--8---------------|--7---7--7--7---7--7-----------------|
E|-----------------------------------|-------------------------------------|


---VERSE 1--- 

 Am              E7
 It's buggin me, grating me
     Dm          Am 
 and twisting me around
                    E7
 Yeah I'm endlessly caving in
     Dm             Am
 and turning inside out


---CHORUS 1--- 

  Am              C 
 'cause I want it now
           G7
 I want it now
 Dm                            Am
   Give me your heart and your soul
                  C
 And I'm breaking out
              G
 I'm breaking out
 Dm                   E7
  Last chance to lose control


---Pre-verse--- 

   Am                                   E7 
E|-----------------------------------|-------------------------------------|
B|-------------------------12b12--10-|-------------------------12b12--10---|
G|--14--14-14-14--14-14--------------|--13--13-13-13--13-13----------------|
D|--x---x--x--x---x--x---------------|--x---x--x--x---x--x-----------------|
A|--12--12-12-12--12-12--------------|--11--11-11-11--11-11----------------|
E|-----------------------------------|-------------------------------------|


   Dm                                   Am                                   
e|-----------------------------------|-------------------------------------|
B|-------------------------12b12--10-|-------------------------12b-12b-12b-|
G|--10--10-10-10--10-10--------------|--9---9--9--9---9--9-----------------|
D|--x---x--x--x---x--x---------------|--x---x--x--x---x--x-----------------|
A|--8---8--8--8---8--8---------------|--7---7--7--7---7--7-----------------|
E|-----------------------------------|-------------------------------------|


 
---VERSE 2--- 

            Am          E7     
 Yeah, It's holding me, morphing me
     Dm            Am
 and forcing me to strive
                 E7
 To be endlessly cold within
     Dm           Am
 and dreaming I'm alive 


---CHORUS 2--- 

  Am              C 
 'cause I want it now
           G7
 I want it now
 Dm                            Am
   Give me your heart and your soul
                  C
 And I'm breaking out
              G
 I'm breaking out
 Dm                    Am 
  Last chance to lose control


---INSTRUMENTAL--- 


   E (16 beats)   
  |----|----|----|-----|

   Am   E7   Dm   Am  
  |----|----|----|-----|

   Am   C    Dm   Am 
  |----|----|----|-----|

   C    G    Dm   Am  
  |----|----|----|-----|

   C    G    Dm   Am  
  |----|----|----|-----|


---VERSE 3--- 
                C 
 And I want you now 
            G7
 I want you now
 Dm              Am
 I feel my heart implode
                  C
 And I'm breaking out
          G
 Escaping now
 Dm                Am
 Feeling my faith erode
 

---OUTRO---


   E              Am   
  |----|----|----|-----|





            
            
Suggest correction
Creating personal tab
Creating personal tab
You can edit any tab online and save it as your Personal.

You can edit, replace or remove any tab part or add personal notes – all changes will be seen only by you.

Personal tabs can be accessed anytime from any device, even offline.
Learn more »
comments
print report bad tab
guest
You may want to rate the tab now too:
select rating
Wanna post a correction for this tab? Suggest correction