Oops, an error
Loading. Please wait.

Hysteria Tab

version 3
by Muse
936,273 views 1,761 this week
74 commentsread comments
1 2 3 4 5
excellent!
x 301
add to favorites
launch autoscroll
font size
0
reset
how to read this tab
guitar tuner
Autoscroll
slow
fast
+/-
esc
set tempo
stop
Help us to improve Ultimate-Guitar.com Take our survey!
×
Author
Muse - Hysteria
Album - Absolution
Tabbed By - Garry Foster (gazfoster@hotmail.com)

I'm 95% sure about this tab. If you want to play it like matt does then you
need to improvise the main riff so it sounds a little bit differently each time.

[Intro 1/Bass]

E||--------------------------------------|
B||--------------------------------------|
G||--------------------------------------|
D||--------------------------------------|
A||--0-0-10-0-10-12-0-10-0-7-0-8-8-7-5-7-|
E||--------------------------------------|

                                            
e|-------------------------------------------|
B|-------------------------------------------|
G|-------------------------------------------|
D|-------------------------------------------|
A|-------------------------------------------|
E|--0-0-10-0-10-12-0-15-0-12-0-15-15-0-15-17-|


e|---------------------------------------|------------------------------------|
B|---------------------------------------|------------------------------------|
G|---------------------------------------|------------------------------------|
D|--0-0-10-0-10-12-0-10-0-10-9-0-9-8-0-8-|7-----------------------------------|
A|---------------------------------------|--0-10-0-10-12-0-10-0-7-0-8-8-7-5-7-|
E|---------------------------------------|------------------------------------|

[Intro 2/Distorted]

the first part is just sliding up the neck,
my part is just a brief guide to the  slides.

E||--------------------|----------------------||
B||--------------------|----------------------||
G||--------------------|----------------------||
D||--------------------|----------------------||
A||--------------------|----------------------||
E||--1////////////////-|////////////////////22||


[Main riff]

E||-----------------------------------|-----------------------------------|
B||-----------------------x-12r---10~-|-----------------------x-12r---10~-|
G||--14--14-14-14--14-14--x-----------|--13--13-13-13--13-13--x-----------|
D||--x---x--x--x---x--x---x-----------|--x---x--x--x---x--x---x-----------|
A||--12--12-12-12--12-12--------------|--11--11-11-11--11-11--------------|
E||-----------------------------------|-----------------------------------|


e|-----------------------------------|-------------------------------||
B|-----------------------x-12r---10~-|-----------------x-12r-12r-12r-||
G|--10--10-10-10--10-10--x-----------|--9--9-9-9--9-9--x-------------||
D|--x---x--x--x---x--x---x-----------|--x--x-x-x--x-x--x-------------||
A|--8---8--8--8---8--8---------------|--7--7-7-7--7-7----------------||
E|-----------------------------------|-------------------------------||


[Verse]

E||----------------------------------||
B||----------------------------------||
G||----------------------------------||
D||----------------------------------||
A||--7-7-7-7-7-7-7-7-7-7-7-7-7-7-7-7-||
E||--5-5-5-5-5-5-5-5-5-5-5-5-5-5-5-5-||
P.M..................................


[Chorus]

E||--------------------------------|--------------------------------|
B||--------------------------------|--------------------------------|
G||--5--5-5-5-5-5-5--5-5-5-5-5-5-5-|--------------------------------|
D||--5--5-5-5-5-5-5--5-5-5-5-5-5-5-|--5--5-5-5-5-5-5--5-5-5-5-5-5-5-|
A||--3--3-3-3-3-3-3--3-3-3-3-3-3-3-|--5--5-5-5-5-5-5--5-5-5-5-5-5-5-|
E||--------------------------------|--3--3-3-3-3-3-3--3-3-3-3-3-3-3-|


e|--------------------------------|--------------------------------||
B|--------------------------------|--------------------------------||
G|--7--7-7-7-7-7-7--7-7-7-7-7-7-7-|--------------------------------||
D|--7--7-7-7-7-7-7--7-7-7-7-7-7-7-|--7--7-7-7-7-7-7--7-7-7-7-7-7-7-||
A|--5--5-5-5-5-5-5--5-5-5-5-5-5-5-|--7--7-7-7-7-7-7--7-7-7-7-7-7-7-||
E|--------------------------------|--5--5-5-5-5-5-5--5-5-5-5-5-5-5-||

Do that twice but the 2nd time instead of the last bar do:

E||-------------------------------------------||
B||-------------------------------------------||
G||-------------------------------------------||
D||-------------------------------------------||
A||-------------------------------------------||
E||--0-0-10-0-10-12-0-15-0-12-0-15-0-12-15h17-||


[Pre-solo riff]
the last line of the chorusis changed to:

E||-------------------------------||
B||-------------------------------||
G||-------------------------------||
D||--7-7-7-7-7----7-7-7-7-7-------||
A||--7-7-7-7-7----7-7-7-7-7-------||
E||--5-5-5-5-5--5-5-5-5-5-5-12/---||
P.M.                . . . .

Then go into: 
E||---------------------------------------|
B||---------------------------------------|
G||---------------------------------------|
D||---------------------------------------|
A||---------------------------------------|
E||--0-0-10-0-10-12-0-10-0-10-9-0-9-8-0-8-|


e|---------------------------------------|------------------------------------|
B|---------------------------------------|------------------------------------|
G|---------------------------------------|------------------------------------|
D|---------------------------------------|------------------------------------|
A|---------------------------------------|------------------------------------|
E|--7-0-10-0-10-12-0-10-0-10-9-0-9-8-0-8-|7-0-10-0-10-12-0-10-0-10-9-0-9-8-0-8|


e|--------------------------------------------||
B|--------------------------------------------||
G|--------------------------------------------||
D|--------------------------------------------||
A|--------------------------------------------||
E|--7-0-10-0-10-12-0-15-0-12-0-15-15-12-15h17-||


[Solo]

Some of it is right, some i think maybe is a bit wrong but it still sound ok. 


[Solo 1] - with Whammy pedal

E||--------12-12-------13-13-------13-13-12-12----12-|
B||--------------------------------------------------|
G||--14-14-------14-14-------14-14-------------14----|
D||--------------------------------------------------|
A||--------------------------------------------------|
E||--------------------------------------------------|



e|--------12-12-------13-13-------13-13-12-12-----|
B|------------------------------------------------|
G|--13-13-------13-13-------13-13-------------13--|
D|------------------------------------------------|
A|------------------------------------------------|
E|------------------------------------------------|



e|--------12-12-------17-17-------13-13-------12-12-|
B|--------------------------------------------------|
G|--14-14-------14-14-------14-14-------14-14-------|
D|--------------------------------------------------|
A|--------------------------------------------------|
E|--------------------------------------------------|



e|--------12-12-------13-13-------13-13-12-12----12-|
B|--------------------------------------------------|
G|--14-14-------14-14-------14-14-------------14----|
D|--------------------------------------------------|
A|--------------------------------------------------|
E|--------------------------------------------------|



e|--------12-12-------13-13-------13-13-12-12----12-|
B|--------------------------------------------------|
G|--14-14-------14-14-------14-14-------------14----|
D|--------------------------------------------------|
A|--------------------------------------------------|
E|--------------------------------------------------|



e|--------12-12-------13-13-------13-13-12-12-----|
B|------------------------------------------------|
G|--13-13-------13-13-------13-13-------------13--|
D|------------------------------------------------|
A|------------------------------------------------|
E|------------------------------------------------|



e|--------12-12-------17-17-------13-13-------12-12-|
B|--------------------------------------------------|
G|--14-14-------14-14-------14-14-------14-14-------|
D|--------------------------------------------------|
A|--------------------------------------------------|
E|--------------------------------------------------|



e|--12----------------------------------------------||
B|--------------15----------13----------12----------||
G|-----14-14-14-------------------------------------||
D|-----------------15-15-15----14-14-14----12-12-12-||
A|--------------------------------------------------||
E|--------------------------------------------------||

[Solo 2]
With Whammy pedal and Delay

E||------------------------------|------------------------------|
B||--13--------------13--12------|--12--------------12--12--13--|
G||------12------------------14--|------12----------------------|
D||----------14------------------|----------12------------------|
A||------------------------------|------------------------------|
E||------------------------------|------------------------------|



e|------------------------------|------------------------------|
B|--15--------------15--13--12--|--13--------------15--13--12--|
G|------14----------------------|------14----------------------|
D|----------15------------------|----------14------------------|
A|------------------------------|------------------------------|
E|------------------------------|------------------------------|



e|----------------------------|------------------------------|
B|--13--------------12r---10--|--12--------------12--13--13b-|
G|------12--------------------|------12----------------------|
D|----------14----------------|----------12------------------|
A|----------------------------|------------------------------|
E|----------------------------|------------------------------|



e|--------------------------|------------------------||
B|--------------15--13--12--|--13--------------------||
G|--------------------------|------14----------------||
D|------14------------------|----------14------------||
A|--------------------------|------------------------||
E|--------------------------|------------------------||


[Ending]

E||---------------------------------------|
B||---------------------------------------|
G||---------------------------------------|
D||---------------------------------------|
A||---------------------------------------|
E||--0-0-10-0-10-12-0-10-0-10-9-0-9-8-0-8-|



e|---------------------------------------|------------------------------------|
B|---------------------------------------|------------------------------------|
G|---------------------------------------|------------------------------------|
D|---------------------------------------|------------------------------------|
A|---------------------------------------|------------------------------------|
E|--7-0-10-0-10-12-0-10-0-10-9-0-9-8-0-8-|7-0-10-0-10-12-0-10-0-10-9-0-9-8-0-8|



e|---------------------------------------|------------------------------------|
B|---------------------------------------|------------------------------------|
G|---------------------------------------|------------------------------------|
D|---------------------------------------|------------------------------------|
A|---------------------------------------|------------------------------------|
E|--7-0-10-0-10-12-0-10-0-10-9-0-9-8-0-8-|7-0-10-0-10-12-0-10-0-10-9-0-9-8-0-8|



e|---------------------------------------|-------||
B|---------------------------------------|-------||
G|---------------------------------------|-------||
D|---------------------------------------|-------||
A|---------------------------------------|-------||
E|--7-0-10-0-10-12-0-10-0-10-9-0-9-8-0-8-|--7\---||


Order:

Intro Pt.1
Intro Pt.2
Main Riff
Verse 
Chorus
Main Riff
Verse 
Chorus
Pre Solo Riff
Solo Pt.1
Solo Pt.2
Chorus
Ending


****************************
| /     slide up
| \     slide down
| x     dead note
| r     release
| P.M.  palm muting
****************************
Suggest correction
comments
print report bad tab
74 comments total. Showing first comments.
+3 reply
Gu1T@r_H3r0 729 wrote on June 18 2004, 12:00 am

Perfect!

+2 reply
damnconfused 10 wrote on December 16 2004, 12:00 am

Awesome tab.

+2 reply
PVTJenkins23 10 wrote on February 5 2005, 12:00 am

wow...

guest
You may want to rate the tab now too:
select rating
Wanna post a correction for this tab? Suggest correction