Oops, an error
Loading. Please wait.

I Belong To You Bass Tab

version 1
version 1

Whole song

Interactive

33,298 views 36 this week
6 commentsread comments
1 2 3 4 5
x 15
add to favorites
launch autoscroll
font size
0
reset
guitar tuner
×
Best way to learn
"I Belong To You"
Autoscroll
slow
fast
+/-
esc
set tempo
stop
Author
Difficulty
Tuning
  follow
novice
D A D G
I Belong To You (Mon coeur s'ouvre à ta voix)
Artist : Muse
Album : The Resistance, 2009
Tuning : Drop D (DADG)
__________________________
¯¯¯¯¯¯¯¯¯¯¯¯¯¯¯¯¯¯¯¯¯¯¯¯¯¯

/ : Slide up
\ : Slide down
h : Hammer on
p : Pull off


I BELONG TO YOU part

intro 0:13

G|---------5545-7-------555------------|
D|-------55-----------55---------------|
A|-----66-----------66-----------------|
D|-0-----------------------------------|


verse 0:24
 
G|----------------------------------------|   Play this part 3 times.
D|------------10\----13-1313101310--------|  <- that are 13's and 10's
A|---8-8811811--------------------10\-----|  <- that are 8's and 11's
D|----------------------------------------|

G|---------5545-7-------555------------|
D|-------55-----------55---------------|
A|-----66-----------66-----------------|
D|-0-----------------------------------|

G|----------------------------------------|   Play this part 3 times.
D|------------10\----13-1313101310--------|  <- that are 13's and 10's
A|---8-8811811--------------------10\-----|  <- that are 8's and 11's
D|----------------------------------------|


Bridge and chorus [0:59]  
 
G|--------223300----------3333---------|  
D|------00------00------11----3300-----|   Play this part 2 times.
A|----00----------11--11----------11---|  <- That are 1's, not 11's
D|--00--------------11-----------------|

G|---------5545-7-------555------------|
D|-------55-----------55---------------|
A|-----66-----------66-----------------|
D|-0-----------------------------------|


verse [1:26]

G|----------------------------------------|   Play this part 3 times.
D|------------10\----13-1313101310--------|  <- that are 13's and 10's
A|---8-8811811--------------------10\-----|  <- that are 8's and 11's
D|----------------------------------------|


Bridge and chorus [1:39]  
 
G|--------223300----------3333---------|  
D|------00------00------11----3300-----|   Play this part 2 times.
A|----00----------11--11----------11---|  <- That are 1's, not 11's
D|--00--------------11-----------------|

G|---------5545-7-------555545---------|
D|-------55-----------55---------------|
A|-----66-----------66-----------------|   Let ring the last note.
D|-0---------------------------0-------| 



MON COEUR S'OUVRE À TA VOIX part

[Bass begin at 2:50]

G|-------------------------------------|
D|-------------------------------------|
A|-0---1-1-2---4-4-5-----2---/7---\0---|
D|-------------------------------------|

[3:12]

G|-------------------------------------|
D|-------------------------------------|
A|-------------------------------------|
D|-0---0-4---4-8---8-7-777047----------|

G|-------------------------------------|
D|-------------------------------------|
A|------------2---21-111---1-----------|
D|-0-00-024--1-----------02------------|

G|-------------------------------------|
D|-------------------------------------|
A|-0---1-1-2---4-4-5-----2---/7---\0---|
D|-------------------------------------|


[4:05] Piano time, don't play here.

[4:32] I BELONG TO YOU part [return]

G|-----555-|
D|---55----|
A|-66------|
D|---------| 


Solo [4:35]

G|----------------------------------------|   Play this part 3 times.
D|------------10\----13-1313101310--------|  <- that are 13's and 10's
A|---8-8811811--------------------10\-----|  <- that are 8's and 11's
D|----------------------------------------|

[4:48]

G|--------223300----------3333---------|  
D|------00------00------11----3300-----|   Play this part 3 times.
A|----00----------11--11----------11---|  <- That are 1's, not 11's
D|--00--------------11-----------------|

G|---------5545-7-------555545---------|
D|-------55-----------55---------------|
A|-----66-----------66-----------------|   Let ring the final Note
D|-0---------------------------0-------|


VOILÀ.
Suggest correction
comments
print report bad tab
6 comments total. Showing first comments. show 1 bad comment
-1 reply
musea7x 30 Sep 19, 2009 09:12 PM

you have the right notes for the verse just an octave or something too high

+7 reply
Marshol 113 Sep 22, 2009 01:45 PM

Well done! Found one mistake in the bridge and chorus part (which is my favourite bass line in the song). It's just two 1's that should be two 0's (on the way down after the first wave top). No big deal, but you could fix it if you wanna.

Your tabs:
G|--------223300----------3333---------|
D|------00------11------11----3300-----|
A|----00----------11--11----------11---|
D|--00--------------11-----------------|

My suggestion:
G|--------223300----------3333---------|
D|------00------00------11----3300-----|
A|----00----------11--11----------11---|
D|--00--------------11-----------------|

You see, it's a Gm chord in that part and the notes played are A# G and D, not D#.

guest
You may want to rate the tab now too:
select rating
Wanna post a correction for this tab? Suggest correction