Oops, an error
Loading. Please wait.

In Groove Tab

by Muse
1,318 views 1 this week
no commentswrite comment
1 2 3 4 5
2 more votes to show rating
add to favorites
launch autoscroll
font size
0
reset
how to read this tab
guitar tuner
Autoscroll
slow
fast
+/-
esc
set tempo
stop
Help us to improve Ultimate-Guitar.com Take our survey!
×
Author
Tabbers playing skills
intermediate ++
Solo: (Overdrive Guitar)

               |---3--|                              |---3---|            
      H        S   S  S  E  E   E     S   Q    S E   S   S   S E   E  E
E||--------------------------------|-------------------------------------|
B||--------------------------------|-------------------------------------|
G||--11--------9h-11p-9-----9------|-------------------------------------|
D||---------------------11-----11--|--9h-11----L-L--10h-11p-10-9------9--|
A||--------------------------------|------------------------------12-----|
E||--------------------------------|-------------------------------------|


                     |-3-|                   |--3--|             
  H          E  S  S S S S E     S E  S Q    S  S  S S S S S E
------------------------------|------------------------------x--|
------------------------------|------------------------------x--|
------------------------------|------------------------------x--|
--9br--------L-------7-9-7----|--------------7h-9p-7---x---x----|
----------------7h-9-------7--|--7-9--L-9------------9-x---x----|
------------------------------|------------------------x---x----|


  E   S E   S E   S E  S E  S  S    H          E  E  E  S S
---------------------------------|--------------------------|
---------------------------------|--------------------------|
---------------------------------|--------------------------|
---------------------------------|--------------------------|
--9S--7-7S--5-5S--4-4--L-2--0h-2-|--2br--------L--2--0--2-0-|
---------------------------------|--------------------------|


  H          E  E  E  S  S     H        E  S   S S   S E
----------------------------|-----------------------------|
----------------------------|-----------------------------|
----------------------------|--------------------9h-11-9--|
----------------------------|--------------9h-11----------|
--2br--------L--2--0--------|-----------------------------|
----------------------2p-0h-|--2--------L-----------------|


                          |--3-|                                         
   Q      Q      E    E   S  S S  E      Q      Q.     S   S  S   S  E
---9------9------9-------------------|----------------------------------|
--12b----12b----12b--12--10-12-9-10--|--12b----12------------10h-12-10--|
-------------------------------------|-----------------9h-11------------|
-------------------------------------|----------------------------------|
-------------------------------------|----------------------------------|
-------------------------------------|----------------------------------|


  H          H
--9b~--------9br~--------|
-------------------------|
-------------------------|
-------------------------|
-------------------------|
-------------------------|


  |--3--|  |--3--|  |--3--|  |--3--| |--3--| |--3--| |--3--| |-3-|
  S  S  S  S  S  S  S  S  S  S  S  S S  S  S S  S  S S  S  S S S S
--7h-9p-7S-5h-7p-5S-4h-5p-4S-2h-4p-2-0h-2p-0-----------------------|
---------------------------------------------4h-5p-4-2h-4p-2---2---|
-------------------------------------------------------------4---4-|
-------------------------------------------------------------------|
-------------------------------------------------------------------|
-------------------------------------------------------------------|


  H        E  E  E  S S    H        E  E  E  S S    H          E  E  E  E
------------------------|------------------------|-------------------------|
------------------------|------------------------|-------------------------|
--4br------L--4--2--4-2-|--4br------L--4--2--4-2-|--4br--------L--4--2--1--|
------------------------|------------------------|-------------------------|
------------------------|------------------------|-------------------------|
------------------------|------------------------|-------------------------|


  W                   Q    Q    Q    Q
-------------------|----------------------||
-------------------|----------------------||
-------------------|----------------------||
--4----------------|--L-------------------||
-------------------|----------------------||
-------------------|----------------------||
Suggest correction
Give kudos to tab author, rate the tab!
1 2 3 4 5
comments
print report bad tab
guest
You may want to rate the tab now too:
select rating
Wanna post a correction for this tab? Suggest correction