Oops, an error
Loading. Please wait.

In Your World Tab

version 4
by Muse
23,067 views 18 this week
9 commentsread comments
1 2 3 4 5
x 29
add to favorites
launch autoscroll
font size
0
reset
how to read this tab
guitar tuner
Autoscroll
slow
fast
+/-
esc
set tempo
stop
Help us to improve Ultimate-Guitar.com Take our survey!
×
Author
Author: Muse
Title: In Your World
Tabbed by: Rob Joyce
Email: rob_joyce@hotmail.com
Tabbed: 25/06/02


Standard tuning


Piano Intro

Ok, i dont know how many of you guitarists can pay piano too,
but trust me when i say this is PERFECT. Sorry i couldnt exress
the note durations (notepads a bit restricting!)
Play it all with both pedals down.

b=flat
#=sharp

Right hand plays this in treble x4.

F|-----------------------------------
e
D|--------------o--------------------
c           o       o
B|------o---------------o------------
a   o                       o   ob      x4
G|-----------------------------------
f
E|----o---o---o---o---o---o---o---o--

The left hand plays these four parts one after the other
together with the right hand part:

Part 1:
                   -o-

A|----------o---------------o--------
g
F|-----------------------------------
e       o       o       o       o
D|-----------------------------------
c
B|-----------------------------------
a   o
G|-----------------------------------


Part 2:

A|------------------o----------------
g
F|----------o---------------o--------
e
D|-----------------------------------
c       o       o       o       o
B|-----------------------------------
a
G|-----------------------------------
    o
   ---


Part 3:

A|-----------------------------------
g
F|------------------o----------------
e
D|----------o---------------o--------
c
B|-----------------------------------
a       o       o       o       o
G|-----------------------------------

   ---
    o
   ---


Part 4:

A|-----------------------------------
g                   o#
F|-----------------------------------
e           o               o
D|-----------------------------------
c
B|------o-------o-------o-------o----
a
G|-----------------------------------

   -o-


Guitar Intro


e|----------------------------------|
B|----------------------------------|
G|----------------------------------|
D|----------------------------------|  x3
A|----------------------------------|
E|-5-0-10-0-8-0-7-0-5-0-4-0-5-0-7-0-|

After that's played three times play stright into this:

e|------------------------------------|
B|------------------------------------|
G|------------------------------------|
D|------------------------------------|
A|------------------------------------|
E|-5-0-4-0-5-0-7-0-8-0-10-0-8-0-7-0-5-|

Second time around repeat all of the above guitar intro
plus second guitar:

e|-----------------------------------------------------------------------------------|
B|-----------------------------------------------------------------------------------|
G|-----------------10-10-10-10-10-10-10-10-10-10-10-10-10-10-10-10-9-9-9-9-9-9-9-9---|
D|-7-7-7-7-7-7-7-7-10-10-10-10-10-10-10-10-10-10-10-10-10-10-10-10-9-9-9-9-9-9-9-9-7-|
A|-7-7-7-7-7-7-7-7--8--8--8--8--8--8--8--8--5--5--5--5--5--5--5--5-7-7-7-7-7-7-7-7-7-|
E|-5-5-5-5-5-5-5-5-----------------------------------------------------------------5-|


[Verse]

This is played quietly (palm-muted with slight echo) over the bass line.

e|---------------------------------------------------------------|
B|---------------------------------------------------------------|
G|---------------------------------------------------------------|
D|-------------------------------------------------6---6---6---6-|
A|-8-7-8-7-8-7-8-7-8-7-8-7-8-7-8-7-8-7-8-7-8-7-8-7---7---7---7---|
E|---------------------------------------------------------------|


e|---------------------------------------------------------------------|
B|---------------------------------------------------------------------|
G|-------5-------5-------------------------7-------7-------7-----------|
D|---7-------7-----------10-------10-------------------6-------6---9---|
A|-7---7---7---7---7-8-7----7-8-7----7-8-7---7-8-7---7---7---7---7---7-|
E|---------------------------------------------------------------------|


[Bridge]

e|------------------------------------------------------------------|
B|------------------------------------------------------------------|
G|---------------------------------2-------2-------1----------10-10-|
D|---------0-----0-2---0-2-3-0-2-3---3-2-3---3-2-3---3-2-3----10-10-|
A|-3-0-2-3---2-3-----3-----------------------------------------8--8-|
E|------------------------------------------------------------------|


[Verse]

e|-----------------------------------------------------------------------|
B|-----------------------------------------------------------------------|
G|--------------10-10----------------9-9------------9-9------------10-10-|
D|-10---10-10---10-10---10---10-10---9-9---7--7-7---9-9---7--7-7---10-10-|  x3
A|-10---10-10----8--8---10---10-10---7-7---7--7-7---7-7---7--7-7----8--8-|
E|--8----8--8------------8----8--8---------5--5-5---------5--5-5---------|


[Outro]

Play the intro followed by this:

Guitar 1:

Ive broken guitar 1 part down into four parts to make it easier to learn
(play it all as one long solo).

 Part 1:                                 Part 2:

e|----------------------------------    -----------------------------------------|
B|----------------------------------    -----------------------------------------|
G|----------------------------------    -----------------------------------------|
D|----------------------------------    -----------------------------------------|
A|----------------------------------    -----------------------------------------|
E|-5-0-4-0-5-0-7-0-8-0-7-0-8-0-10-0-    -12-0-10-0-12-0-13-0-12-0-13-0-12-0-13-0-|

 Part 3:                                  Part 4:

e|------------------------------------    -------------------------------------|
B|------------------------------------    -------------------------------------|
G|------------------------------------    -------------------------------------|
D|------------------------------------    -------------------------------------|
A|------------------------------------    -------------------------------------|
E|-15-0-13-0-12---12-0-10-0-12-0-10-0-    -8-0-10-0-8-0-7-0-8-0-10-0-8-0-7-0-5-|

Guitar 2:

e|---------------------------------------------------------------------------------|
B|---------------------------------------------------------------------------------|
G|-9-9-9-9-9-9-9-9-10-10-10-10-10-10-10-10-10-10-10-10-10-10-10-10-9-9-9-9-9-9-9-9-|
D|-9-9-9-9-9-9-9-9-10-10-10-10-10-10-10-10-10-10-10-10-10-10-10-10-9-9-9-9-9-9-9-9-|  x2
A|-7-7-7-7-7-7-7-7--8--8--8--8--8--8--8--8--5--5--5--5--5--5--5--5-7-7-7-7-7-7-7-7-|
E|---------------------------------------------------------------------------------|

Ending on:

e|---
B|---
G|---
D|-7-
A|-7-
E|-5-
Suggest correction
comments
print report bad tab
9 comments total. Showing first comments.
0 reply
the anus 510 Feb 17, 2004 12:00 AM

F|-----------------------------------
e
D|--------------o--------------------
c o o
B|------o---------------o------------
a o o ob x4
G|-----------------------------------
f
E|----o---o---o---o---o---o---o---o--


wat all this^^^^^^^??????????

0 reply
Emenius Sleepus 290 Apr 17, 2004 12:00 AM

the best tab of In Your World I've seen on this site. Good job. I'd give you 2 five's or a 10 but they wouldn't let me

0 reply
Gu1T@r_H3r0 729 Sep 13, 2004 12:00 AM

***ing excellent tab mate, much better than mine

guest
You may want to rate the tab now too:
select rating
Wanna post a correction for this tab? Suggest correction