Oops, an error
Loading. Please wait.

In Your World Bass Tab

version 6
version 6
by Muse
2,574 views 3 this week
no commentswrite comment
1 2 3 4 5
excellent!
x 8
add to favorites
launch autoscroll
font size
0
reset
guitar tuner
Autoscroll
slow
fast
+/-
esc
set tempo
stop
Help us to improve Ultimate-Guitar.com Take our survey!
×
Author
Band: Muse
Song: In Your World
Album: Dead Star - In Your World Single CD2
Bassist: Chris Wolstenholme
Tuning: Standard

Verse:

G|--------|---------|--------|--------|
D|--------|------910|------67|--------|
A|------57|888888---|555555--|77777777|
E|555555--|---------|--------|--------|

G|--------|---------|--------|--------|
D|--------|------910|------67|------79|
A|------57|888888---|555555--|777777--|
E|555555--|---------|--------|--------|

G|--------|---------|--------|--------|
D|--------|------910|------67|--------|
A|------57|888888---|555555--|77777---|
E|555555--|---------|--------|-----888|

Pre-chorus:

G|----------------|----------------|----------------|---------------|
D|----------------|----------------|7-------7-------|6--------------|
A|--------5-----5-|7---5-7-8-5-7-8-|--8-7-8---8-7-8-|--8-7-8---8-8-8|
E|8-5-7-8---7-8---|--8-------------|----------------|--------8------|

Chorus:

G|--------|--------|--------|--------|
D|--------|--------|--------|--------|
A|-----888|-----777|-----777|-----888|
E|8~888---|8~888---|5~555---|5~555---| x2

G|--------|--------|--------|---------|
D|--------|--------|--------|---------|
A|-----888|-----777|-----777|-----888\|
E|88888---|88888---|55555---|55555----|

Verse: 

G|--------|---------|--------|--------|
D|--------|------910|------67|--------|
A|------57|888888---|555555--|77777777|
E|555555--|---------|--------|--------|

G|--------|---------|--------|--------|
D|--------|------910|------67|------79|
A|------57|888888---|555555--|777777--|
E|555555--|---------|--------|--------|

G|--------|---------|--------|--------|
D|--------|------910|------67|--------|
A|------57|888888---|555555--|77777---|
E|555555--|---------|--------|-----888|

Pre-chorus:

G|----------------|----------------|----------------|---------------|
D|----------------|----------------|7-------7-------|6--------------|
A|--------5-----5-|7---5-7-8-5-7-8-|--8-7-8---8-7-8-|--8-7-8---8-8-8|
E|8-5-7-8---7-8---|--8-------------|----------------|--------8------|

Chorus:

G|--------|--------|--------|--------|
D|--------|--------|--------|--------|
A|-----888|-----777|-----777|-----888|
E|8~888---|8~888---|5~555---|5~555---| x2

G|--------|--------|--------|--------|
D|--------|--------|--------|--------|
A|-----888|-----777|-----777|-----888|
E|88888---|88888---|55555---|55555---|

Ending:

G|--------|--------|--------|--------|
D|--------|--------|--------|--------|
A|--------|88888888|55555555|77777777|
E|55555555|--------|--------|--------| x2

G|--------|
D|--------|
A|--------|
E|5~------|

/  slide up
\  slide down
h  hammer-on
p  pull-off
~  let ring
Suggest correction
comments
print report bad tab
guest
You may want to rate the tab now too:
select rating
Wanna post a correction for this tab? Suggest correction