Oops, an error
Loading. Please wait.

Invincible Tab

version 1
version 1
by Muse
24,341 views 3 this week
2 commentsread comments
1 2 3 4 5
x 9
add to favorites
launch autoscroll
font size
0
reset
how to read this tab
guitar tuner
Autoscroll
slow
fast
+/-
esc
set tempo
stop
Help us to improve Ultimate-Guitar.com Take our survey!
×
Author
Difficulty
advanced
          |--3--|  |--3--| |-3-|      |--3--|  |--3--| |-3-|      |--3--|  |--3--|  |--3--|       |--3--|  
      E.  S  S  S  S  S  S S S S  E.  S  S  S  S  S  S S S S  E.  S  S  S  S  S  S  S  S  S S  E  S  S  S  
E||--15--------------------------13--------------------------12-------------------------------13----------|
B||-------8p-6h-8p-6h-8p-6-8-6-8------8p-6h-8p-6h-8p-6-8-6-8------8p-6h-8p-6h-8p-6h-8p-6h-8-L-----8p-6h-8-|
G||-------------------------------------------------------------------------------------------------------|
D||-------------------------------------------------------------------------------------------------------|
A||-------------------------------------------------------------------------------------------------------|
E||-------------------------------------------------------------------------------------------------------|


      |--3--|       |--3--|  |--3--|  |--3--|        
   E  S  S  S S  E  S  S  S  S  S  S  S  S  S S  E   
--15------------17------------------------------15--|
------8p-6h-8-6-------------------------------------|
--------------------5p-2h-5p-2h-5p-2h-5p-2h-5-L-----|
----------------------------------------------------|
----------------------------------------------------|
----------------------------------------------------|


  |--3--|  |--3--|  |--3--|        |--3--|  |--3--|  |--3--|       |-3-|        
  S  S  S  S  S  S  S  S  S S  E.  S  S  S  S  S  S  S  S  S S  E  S S S S  E   
------------------------------13-------------------------------15----------17--|
-------------------------------------------------------------------------------|
--5p-2h-5p-2h-5p-2h-5p-2h-5-L------5p-2h-5p-2h-5p-2h-5p-2h-5-L--L--5-2-5-2-----|
-------------------------------------------------------------------------------|
-------------------------------------------------------------------------------|
-------------------------------------------------------------------------------|


  |-3-|       |--3-|  |--3-| |--3-|     |--3-|  3     |--3-|  3     |--3-|  |--3-| |--3-|       |--3-|  3      
  S S S S  E  S  S S  S S  S S  S S  E  S  S S  S  E  S  S S  S  E  S  S S  S S  S S  S S S  E  S  S S  S  E   
----------17------------------------15------------17------------19--------------------------17------------19--|
--------------------------------------------------------------------------------------------------------------|
--5-2-5-2-----7-10-7-10-7-10-7-10-7-----7-10-7-10-----7-10-7-10-----7-12-7-12-7-12-7-12-7-L-----7-12-7-12-----|
--------------------------------------------------------------------------------------------------------------|
--------------------------------------------------------------------------------------------------------------|
--------------------------------------------------------------------------------------------------------------|


  |--3-|  3     |--3-|  |--3-| |--3-|       |--3-|  3     |--3-|  3  
  S  S S  S  E  S  S S  S S  S S  S S S  E  S  S S  S  E  S  S S  S  
------------19--------------------------17------------19------------|
--------------------------------------------------------------------|
--7-12-7-12-----9-13-9-13-9-13-9-13-9-L-----9-13-9-13-----9-13-9-13-|
--------------------------------------------------------------------|
--------------------------------------------------------------------|
--------------------------------------------------------------------|


      |--3-|  |--3-| |--3-|       |--3-|  3     |--3-|  3       
   E  S  S S  S S  S S  S S S  E  S  S S  S  E  S  S S  S  E.   
--20--------------------------19------------20------------20---|
---------------------------------------------------------------|
------9-14-9-14-9-14-9-14-9-L-----9-14-9-14-----9-14-9-14------|
---------------------------------------------------------------|
---------------------------------------------------------------|
---------------------------------------------------------------|


   |--3--|  |--3--|  |--3--|        |--3--|  3      |--3--|  3      |--3--|  |--3--|  |--3--|                     
   S  S  S  S  S  S  S  S  S S  E   S  S  S  S  E   S  S  S  S  E   S  S  S  S  S  S  S  S  S  W                  
-------------------------------19--------------20--------------22-----------------------------22b----------------|
-----------------------------------------------------------------------------------------------------------------|
--10-14-10-14-10-14-10-14-10-L-----10-14-10-14-----10-14-10-14-----12-16-12-16-12-16-12-16-12--------------------|
-----------------------------------------------------------------------------------------------------------------|
-----------------------------------------------------------------------------------------------------------------|
-----------------------------------------------------------------------------------------------------------------|

Suggest correction
comments
print report bad tab
2 comments total.
0 reply
Zeidrich 634 Nov 01, 2006 10:16 AM

Bloody hell thats accurate. One thing though, on the tapped notes with the right hand, theyre played an octave down and are octaved with the Whammy pedal. Good job otherwise

0 reply
James_CFC 114 Dec 21, 2006 08:15 AM

Great tab, thanks =)

guest
You may want to rate the tab now too:
select rating
Wanna post a correction for this tab? Suggest correction