Oops, an error
Loading. Please wait.

Invincible Tab

version 2
version 2

Whole song

85,167 views 36 this week
34 commentsread comments
1 2 3 4 5
x 38
add to favorites
launch autoscroll
font size
0
reset
how to read this tab
guitar tuner
backing track
0:00
0:00
Autoscroll
slow
fast
+/-
esc
set tempo
stop
Author
Difficulty
  follow
intermediate
Tuning: EADGBe

[Intro riff] 
(with slide an reverb)
e|-10/14\--|-\12/--|-/13\5-|-5/--|-13\7--|-7-|
B|---------|-------|-------|-----|-------|---|
G|---------|-------|-------|-----|-------|---|
D|---------|-------|-------|-----|-------|---|
A|---------|-------|-------|-----|-------|---|
E|---------|-------|-------|-----|-------|---|

e|-12\3-3-3/|12\3-3-3/|/13\5-5-5/|/13\5-5-5/|/13\7-7-7/|/13\7/8/10-|
B|----------|---------|----------|----------|----------|-----------|
G|----------|---------|----------|----------|----------|-----------|
D|----------|---------|----------|----------|----------|-----------|
A|----------|---------|----------|----------|----------|-----------|
E|----------|---------|----------|----------|----------|-----------|

[Verse]
e|-5-----|-7-----|---------8-|-8-----|-10----|-10-----|-12----|-12----|
B|-6-----|-8-----|-----8-----|-10----|-10----|-12-----|-12----|-13----|
G|-5-----|-7-----|-7/9---9---|-10----|-10----|-12-----|-13----|-14----|
D|-------|-------|-----------|-------|-------|--------|-------|-------|
A|-------|-------|-----------|-------|-------|--------|-------|-------|
E|-------|-------|-----------|-------|-------|--------|-------|-------|

e|-13----|-------------15-|
B|-13----|-------15-------|
G|-14----|-14/16----16----|
D|-------|----------------|
A|-------|----------------|
E|-------|----------------|

[Instrumental riff] 
(with slide an reverb)
e|-12\3-3-3/|12\3-3-3/|/13\5-5-5/|/13\5-5-5/|/13\7-7-7/|/13\7/8/10-|
B|----------|---------|----------|----------|----------|-----------|
G|----------|---------|----------|----------|----------|-----------|
D|----------|---------|----------|----------|----------|-----------|
A|----------|---------|----------|----------|----------|-----------|
E|----------|---------|----------|----------|----------|-----------|

[Verse] 
(light overdrive)
e|---------------------------------|----------------------------------|
B|---------------------------------|----------------------------------|
G|---------5---------------5-------|---------5---------------5--------|
D|-----5-----5---5-----5-----5---5-|-----5-----5---5-----5-----5---5--|
A|-3-3---3-----3---3-3---3-----3---|-3-3---3-----3---3-3---3-----3----|
E|---------------------------------|----------------------------------|

e|---------------------------------|----------------------------------|
B|---------------------------------|----------------------------------|
G|---------5---------------5-------|---------5---------------5--------|
D|-----3-----3---3-----3-----3---3-|-----3-----3---3-----3-----3---3--|
A|-3-3---3-----3---3-3---3-----3---|-3-3---3-----3---3-3---3-----3----|
E|---------------------------------|----------------------------------|

e|---------------------------------|----------------------------------|
B|---------------------------------|----------------------------------|
G|---------7---------------7-------|---------7---------------7--------|
D|-----7-----7---7-----7-----7---7-|-----5-----5---5-----5-----5---5--|
A|-5-5---5-----5---5-5---5-----5---|-5-5---5-----5---5-5---5-----5----|
E|---------------------------------|----------------------------------|

e|---------------------------------|----------------------------------|
B|---------------------------------|----------------------------------|
G|---------9---------------9-------|---------9---------------9--------|
D|-----6-----6---6-----6-----6---6-|-----7-----7---7-----7-----7---7--|
A|-7-7---7-----7---7-7---7-----7---|-7-7---7-----7---7-7---7-----7----|
E|---------------------------------|----------------------------------|

e|---------------------------------|----------------------------------|
B|---------------------------------|----------------------------------|
G|---------5---------------5-------|---------7---------------7--------|
D|-----3-----3---3-----3-----3---3-|-----5-----5---5-----5-----5---5--|
A|-3-3---3-----3---3-3---3-----3---|-5-5---5-----5---5-5---5-----5----|
E|---------------------------------|----------------------------------|

e|---------------------------------|----------------------------------|
B|---------------------------------|----------------------------------|
G|---------5---------------5-------|---------5---------------5--------|
D|-----5-----5---5-----5-----5---5-|-----5-----5---5-----5-----5---5--|
A|-3-3---3-----3---3-3---3-----3---|-3-3---3-----3---3-3---3-----3----|
E|---------------------------------|----------------------------------|
(Keep playing this under for a second time or you can play this on the second time.)

[Verse] 
(clean)
e|---------5-------------5-------|---------7-------------7-------|
B|-----6-----6---6---6-----6---6-|-----8-----8---8---8-----8---8-|
G|-5-5---5-----5---5---5-----5---|-7-7---7-----7---7---7-----7---|
D|-------------------------------|-------------------------------|
A|-------------------------------|-------------------------------|
E|-------------------------------|-------------------------------|

e|---------8-------------8-------|------------8-------------------8----------|
B|-----8-----8---8---8-----8---8-|-8----10------10----10----10------10----10-|
G|-7/9---9-----9---9---9-----9---|---10----10------10----10----10------10----|
D|-------------------------------|-------------------------------------------|
A|-------------------------------|-------------------------------------------|
E|-------------------------------|-------------------------------------------|

e|-------------10-------------------10----------|
B|-10----10-------10----10----10-------10----10-|
G|----10----10-------10----10----10-------10----|
D|----------------------------------------------|
A|----------------------------------------------|
E|----------------------------------------------|

e|-------------10-------------------10--------|
B|-------12-------12----12----12-------12-----|
G|----12----12-------12----12----12-------12/-|
D|--------------------------------------------|
A|--------------------------------------------|
E|--------------------------------------------|

e|--------------12----------------------12----------|
B|--------12-------12----12-------12-------12----12-|
G|-/13-13----13-------13----13-13----13-------13----|
D|--------------------------------------------------|
A|--------------------------------------------------|
E|--------------------------------------------------|

e|-------------12-------------------12----------|
B|-12----13-------13----13----13-------13----13-|
G|----14----14-------14----14----14-------14----|
D|----------------------------------------------|
A|----------------------------------------------|
E|----------------------------------------------|

e|--------------13----------------------13---------------|
B|--------13-------13----13-------13-------13----13------|
G|-14-14----14-------14----14-14----14-------14----14-14/|
D|-------------------------------------------------------|
A|-------------------------------------------------------|
E|-------------------------------------------------------|

e|-------------15-------------------15----------|
B|-------15-------15----15----15-------15----15-|
G|/16-16----16-------16----16----16-------16----|
D|----------------------------------------------|
A|----------------------------------------------|
E|----------------------------------------------|

[Bass]
G|--------------------------------------|-----------------------------------------|
D|--------10-----8------------------8---|-----------------------------------------|
A|-7--------------------11-----10-------|-11------10------8------11------10---8---|
E|---8--8----8-8---8--8----8-8----8---8-|----8--8----8--8---8--8----8--8----8---8-|

G|--------------------------------------|-----------------------------------------|
D|--------10-----8------------------8---|-----------------------------------------|
A|-7--------------------11-----10-------|-11------10------8------11------10---8---|
E|---8--8----8-8---8--8----8-8----8---8-|----8--8----8--8---8--8----8--8----8---8-|

                (x3)                                (x1)
G|-5------5------5------5------5---5---|-5-----5-------5--5--5///////-|
D|-------------------------------------|------------------------------|
A|---3--3---3--3---3--3---3--3---3---3-|---3--3---3--3----------------|
E|-------------------------------------|------------------------------|

[Guitar solo] 
(best since hysteria in my opinion)
(ht is for tremolo picking and hammering on and off quickly. You're gonna have to listen 
the song for this it's very hard to tab. the notes in brackets are the ones you tap.)

e|---------------------------|----------------------------------------|
B|---------------------------|----------------------------------------|
G|-(12)---0ht5---(10)---0ht5-|-(9)---0ht5---(10)---0ht5---(12)---0ht5-|
D|---------------------------|----------------------------------------|
A|---------------------------|----------------------------------------|
E|---------------------------|----------------------------------------|

e|---------------------------|-----------------------------------------|
B|---------------------------|-----------------------------------------|
G|-(14)---2ht5---(12)---2ht5-|-(10)---2ht5---(12)---2ht5---(14)---2ht5-|
D|---------------------------|-----------------------------------------|
A|---------------------------|-----------------------------------------|
E|---------------------------|-----------------------------------------|

e|--------------------------------------|------------------------------------|
B|--------------------------------------|------------------------------------|
G|-(14)--7ht10--(12)--7ht10-(14)--7ht10-|(16)--7ht12--(14)--7ht12-(16)-7ht12-|
D|--------------------------------------|------------------------------------|
A|--------------------------------------|------------------------------------|
E|--------------------------------------|------------------------------------|

e|--------------------------------------|------------------------------------|
B|--------------------------------------|------------------------------------|
G|-(16)--9ht13--(14)--9ht13-(16)--9ht13-|(17)--9ht14--(16)--9ht14-(17)-9ht14-|
D|--------------------------------------|------------------------------------|
A|--------------------------------------|------------------------------------|
E|--------------------------------------|------------------------------------|

e|------------------------------------------|---------------------|---|----------|
B|------------------------------------------|---------------(b15)-|---|----------|
G|-(17)--10ht14--(16)--10ht14--(17)--10ht14-|-(19)--12ht16--------|---|----------|
D|------------------------------------------|---------------------|---|----------|
A|------------------------------------------|---------------------|---|----------|
E|------------------------------------------|---------------------|---|-x\\\\\\\\|
                                                        hold bend  pickscrape

e|---------------------------|---------------------------|
B|-10--10--x-x-x-x-10-10-x-x-|-12--12--x-x-x-x-12-12-x-x-|
G|-10--10--x-x-x-x-10-10-x-x-|-12--12--x-x-x-x-12-12-x-x-|
D|-10--10--x-x-x-x-10-10-x-x-|-12--12--x-x-x-x-12-12-x-x-|
A|-8---8---x-x-x-x-8--8--x-x-|-10--10--x-x-x-x-10-10-x-x-|
E|---------------------------|---------------------------|

e|-8---8---x-x-x-x--8---8---x-x-|-----------------------------|
B|-8---8---x-x-x-x--8---8---x-x-|-10--10--x-x-x-x-10-x-10--10-|
G|-9---9---x-x-x-x--9---9---x-x-|-10--10--x-x-x-x-10-x-10--10-|
D|-10--10--x-x-x-x--10--10--x-x-|-10--10--x-x-x-x-10-x-10--10-|
A|-10--10--x-x-x-x--10--10--x-x-|-8---8---x-x-x-x-8--x-8---8--|
E|-8---8---x-x-x-x--8---8---x-x-|-----------------------------|

e|------------------------------|-10--10-x-x-x-x-10--10--x-x--|
B|-10--10--x-x-x-x--10--10--x-x-|-12--12-x-x-x-x-12--12--x-x--|
G|-10--10--x-x-x-x--10--10--x-x-|-12--12-x-x-x-x-12--12--x-x--|
D|-12--12--x-x-x-x--12--12--x-x-|-12--12-x-x-x-x-12--12--x-x--|
A|-12--12--x-x-x-x--12--12--x-x-|-10--10-x-x-x-x-10--10--x-x--|
E|-10--10--x-x-x-x--10--10--x-x-|-----------------------------|

e|-11--11--x-x-x-x--11--11--x-x-|-12--12-x-x-x-x-12--12--x-x--|
B|-12--12--x-x-x-x--12--12--x-x-|-13--13-x-x-x-x-13--13--x-x--|
G|-13--13--x-x-x-x--13--13--x-x-|-14--14-x-x-x-x-14--14--x-x--|
D|-14--14--x-x-x-x--14--14--x-x-|-14--14-x-x-x-x-14--14--x-x--|
A|-11--11--x-x-x-x--11--11--x-x-|-12--12-x-x-x-x-12--12--x-x--|
E|------------------------------|-----------------------------|

e|-13--13--x-x-x-x--13--13--x-x-|-15--15--15--15--15--15--15--15-|
B|-13--13--x-x-x-x--13--13--x-x-|-15--15--15--15--15--15--15--15-|
G|-14--14--x-x-x-x--14--14--x-x-|-16--16--16--16--16--16--16--16-|
D|-15--15--x-x-x-x--15--15--x-x-|-17--17--17--17--17--17--17--17-|
A|-15--15--x-x-x-x--15--15--x-x-|-17--17--17--17--17--17--17--17-|
E|-13--13--x-x-x-x--13--13--x-x-|-15--15--15--15--15--15--15--15-|

            (x3)                          (x1)
e|---------------------------|----------------------------|
B|---------------------------|----------------------------|
G|-5--5--5--5---5--5--5--5---|-5--5--5--5---5--5--5--5\\\-|
D|---------------------------|----------------------------|
A|-3--3--3--3---3--3--3--3---|-3--3--3--3---3--3--3--3\\\-|
E|---------------------------|----------------------------|


************************************

| /    Slide up
| \    Slide down
| (n)  Ghost note
| x    Dead note

************************************
Suggest correction
comments
print report bad tab
34 comments total. Showing first comments.
+1 reply
Intense_conn 10 Feb 08, 2007 11:32 AM

ACENESS

+3 reply
Krikkit 10 Feb 14, 2007 07:30 AM

Awesome tab - even the solo's almost perfect - you get exactly what you need from it.

+2 reply
clive_jordan 10 Mar 04, 2007 05:47 AM

brilliant tab for a brilliant song, brilliant job mate

guest
You may want to rate the tab now too:
select rating
Wanna post a correction for this tab? Suggest correction