Oops, an error
Loading. Please wait.

Knights Of Cydonia Bass Tab

version 4
version 4

Whole song

by Muse
8,521 views 9 this week
no commentswrite comment
1 2 3 4 5
worth learning
x 5
add to favorites
launch autoscroll
font size
0
reset
guitar tuner
Tab Pro tools
  • play this tab
  • loop segment
  • change instrument
  • show fretboard
  • metronome
×
Best way to learn
"Knights Of Cydonia"
Autoscroll
slow
fast
+/-
esc
set tempo
stop
Contributor
Band: Muse
Song: Knights of Cydonia
Album: Black Holes And Revelations

Tuning: Standard

/: Slide up
\: Slide down
h: Hammer on
p: Pull off

Notes:
This is the Synth Bit part of the song. Chris Wolstenholme doesn't
play this part on the Live shows, thats why nobody have seen it.


Synth Bit (3:17)
G||--------------------------------9------|--------------------------------9------|
D||----------------------9------9---------|----------------------9------9---------|
A||--7-----7--10--7--10-----10------------|--7-----7--10--7--10-----10------------|
E||-----7---------------------------------|-----7---------------------------------|

G||--------------------------------7------|--------------------------------7------|
D||----------------------9------9---------|----------------------9------9---------|
A||--5-----5--9------9------9-------------|--5-----5---9------9------9------------|
E||-----7--------10-----------------------|-----7--------10-----------------------|

G||--------------------------------6------|--------------------------------6------|
D||----------------------7------7---------|----------------------7------7---------|
A||--4-----4--7------7------7-------------|--4-----4---7------7------7------------|
E||-----5---------9-----------------------|-----5---------9-----------------------|

G||--------------------------------9------|--------------------------------9------|
D||----------------------9------9---------|----------------------9------9---------|
A||--7-----7--10--7--10-----10------------|--7-----7--10--7--10-----10------------|
E||-----7---------------------------------|-----7---------------------------------|

G||--------------------------------9------|--------------------------------9------|
D||----------------------9------9---------|----------------------9------9---------|
A||--7-----7--10--7--10-----10------------|--7-----7--10--7--10-----10------------|
E||-----7---------------------------------|-----7---------------------------------|

G||--------------------------------7------|--------------------------------7------|
D||----------------------9------9---------|----------------------9------9---------|
A||--5-----5--9------9------9-------------|--5-----5---9------9------9------------|
E||-----7--------10-----------------------|-----7--------10-----------------------|

G||--------------------------------6------|--------------------------------6------|
D||----------------------7------7---------|----------------------7------7---------|
A||--4-----4--7------7------7-------------|--4-----4---7------7------7------------|
E||-----5---------9-----------------------|-----5---------9-----------------------|

G||--------------------------------9------|--------------------------------9------|
D||----------------------9------9---------|----------------------9------9---------|
A||--7-----7--10--7--10-----10------------|--7-----7--10--7--10-----10------------|
E||-----7---------------------------------|-----7---------------------------------|

G||--------------------------------9------|--------------------------------9------|
D||----------------------9------9---------|----------------------9------9---------|
A||--7-----7--10--7--10-----10------------|--7-----7--10--7--10-----10------------|
E||-----7---------------------------------|-----7---------------------------------|

G||--------------------------------11-----|--------------------------------11-----|
D||------------9------9--12--9--12--------|------------9------9--12--9--12--------|
A||--9-----9------9-----------------------|--9-----9------9-----------------------|
E||----10---------------------------------|----10---------------------------------|

G||--------------------------------14-----|--------------------------------14-----|
D||----------11----11--14--11--14---------|----------11----11--14--11--14---------|
A||-12----12----12------------------------|-12----12----12------------------------|
E||----12---------------------------------|----12---------------------------------|

G||---------------------9------9---12-----|---------------------9------9---12-----|
D||-----------9-----9------9--------------|-----------9-----9------9--------------|
A||-10----10----10------------------------|-10----10----10------------------------|
E||----12---------------------------------|----12---------------------------------|

G||---------------------9------9---12-----|---------------------9------9---12-----|
D||-----------9-----9------9--------------|-----------9-----9------9--------------|
A||-10----10----10------------------------|-10----10----10------------------------|
E||----12---------------------------------|----12---------------------------------|

G||--------------------------------16-----|--------------------------------16-----|
D||----------------------16----16---------|----------------------16----16---------|
A||-14----14--17--14--17----17------------|-14----14--17--14--17----17------------|
E||----14---------------------------------|----14---------------------------------|

G||--------------------------------18-----|--------------------------------18-----|
D||--------------------19------19---------|--------------------19------19---------|
A||-16----16-19-16-19------19-------------|-16----16-19-16-19------19-------------|
E||----17---------------------------------|----17---------------------------------|

G||--------------------------------21-----|--------------------------------21-----|
D||-----------17------17-21-17-21---------|-----------17------17-21-17-21---------|
A||-19----19------19----------------------|-19----19------19----------------------|
E||----19---------------------------------|----19---------------------------------|

Enjoy!
comments
print report bad tab
I want to post or [tab]
guest
You may want to rate the tab now too:
select rating
Please do not post tabs as comments. Select "correction" instead!