Oops, an error
Loading. Please wait.

Knights Of Cydonia Tab

version 5
version 5
by Muse
29,576 views 27 this week
11 commentsread comments
1 2 3 4 5
x 13
add to favorites
launch autoscroll
font size
0
reset
how to read this tab
guitar tuner
Autoscroll
slow
fast
+/-
esc
set tempo
stop
Help us to improve Ultimate-Guitar.com Take our survey!
×
-------------------------------------------------------------------------------
                             KNIGHTS OF CYDONIA - Muse
-------------------------------------------------------------------------------
Tabbed by: Sam Allen
(Yes the same guy who did take a bow version 2 perfectly)

Tuning: EADGBe
listen to song for rhythm (I think theres a time signature change late on)

e|---------|------|---------|------------|---------|------|---------|---------------|
B|---------|------|---------|------------|---------|------|---------|---------------|
G|---------|------|---------|------------|---------|------|---------|---------------|
D|---------|------|---------|------------|---------|------|---------|---------------|
A|---------|------|-0----0--|-2----14\\\\|---------|------|-0----0--|-2-------------|
E|-0----2--|-3----|---------|------------|-0----2--|-3----|---------|---------------|

e|--------------|-----------------|----------------|------|
B|--------------|-----------------|----------------|------|
G|--------------|-----------------|----------------|------|  
D|--------------|-----------------|----------------|------|    X 2
A|-7-5-7/9--7-9/|/10---10----9-10/|/12\10\9/10\9\7\|\6----|
E|--------------|-----------------|----------------|------|

e|----------|--------|---------|------|--------|
B|----------|--------|---------|------|--------|
G|----------|--------|---------|------|--------|
D|----------|--------|---------|------|--------|
A|-14\\\\\\\|--------|---------|------|--------|
E|----------|-0------|--0------|------|-(0)----|
              WHAMMY BAR       -1

HEAVY DISTORSION & TREMOLO EFFECT 

e|-----------|----------|-----------|-------|----------|------------|--------------|------|
B|-----------|----------|-----------|-------|----------|------------|--------------|------|
G|-----------|----------|-----------|-------|----------|------------|--------------|------|
D|-----------|----------|-----------|-------|----------|------------|--------------|------|
A|-10---9--7-|-5---7--9-|-10---9--7-|-5-----|-6---7--9-|-7---10--12-|-13---12--13--|-14---|
E|-----------|----------|-----------|-------|----------|------------|--------------|------|

e|-------------|------|-------------|------|-------------|-------------|-----|------|----------|
B|-------------|------|-------------|------|-------------|-------------|-----|------|----------|
G|-------------|------|-------------|------|-------------|-------------|-----|------|----------|
D|-------------|------|-------------|------|-------------|-------------|-----|------|----------|
A|-18---15--10-|-17---|-18---17--15-|-13---|-17---15--13-|-15---13--11-|-13--|-14---|-14--15-17|
E|-------------|------|-------------|------|-------------|-------------|-----|------|----------|

e|------|------|----|--------|
B|------|------|----|--------|
G|------|------|----|--------|
D|------|------|----|--------|
A|-15---|-15---|----|-(15)---|
E|------|------|----|--------|
   WHAMMY BAR -1

  TREMOLO PICKING
e|-11---10--8-|-6---8--10-|-11---10--8-|-6----|-7---8--10-|-8---11--13-|-14---13--14-|-15--|
B|------------|-----------|------------|------|-----------|------------|-------------|-----|
G|------------|-----------|------------|------|-----------|------------|-------------|-----|
D|------------|-----------|------------|------|-----------|------------|-------------|-----|
A|------------|-----------|------------|------|-----------|------------|-------------|-----|
E|------------|-----------|------------|------|-----------|------------|-------------|-----|

e|-19---16--11|-18--------|-19---18--16|-14---|-18--16-14-|-16--14--12-|-14---|-15--|
B|------------|-----------|------------|------|-----------|------------|------|-----|
G|------------|-----------|------------|------|-----------|------------|------|-----|
D|------------|-----------|------------|------|-----------|------------|------|-----|
A|------------|-----------|------------|------|-----------|------------|------|-----|
E|------------|-----------|------------|------|-----------|------------|------|-----|

e|-16---|-16---|-16---|-16---|
B|------|------|------|------|
G|------|------|------|------|
D|------|------|------|------|
A|------|------|------|------|
E|------|------|------|------|

TAKE IT TO THE VERSE

e|-4----|-7----|------|-7----|------|------|-3----|-7----|-7-----|-7-----|-----8-|-7----|
B|-4----|-7----|-9----|-7----|-8----|-9----|-3----|-7----|---8---|---7---|---8---|-8----|
G|-4----|-8----|-9----|-8----|-8----|-9----|-4----|-8----|-----9-|-----8-|-9-----|-7----|
D|-6----|-9----|-9----|-9----|-8----|-9----|-5----|-9----|-------|-------|-------|------|
A|-6----|-9----|-7----|-9----|-6----|-7----|-5----|-9----|-------|-------|-------|------|
E|-4----|-7----|------|-7----|------|------|-3----|-7----|-------|-------|-------|------|

e|-7----|-8----|-7----|-7----|-7----|-7----|----|----|
B|-7----|-8----|-8----|-7----|-8----|-8----|----|----|
G|-8----|-9----|-7----|-8----|-9----|-9----|----|----|
D|------|------|-9----|------|-9----|-9----|----|----|
A|------|------|-10---|------|-7----|-7----|----|----|
E|------|------|------|------|------|------|----|----|

e|-------|------|-------|------|-------|------|-------|------|
B|-------|------|-------|------|-------|------|-------|------|
G|-------|------|-------|------|-------|------|-------|------|
D|-------|------|-------|------|-------|------|-------|------|
A|-------|------|-0---0-|-2----|-------|------|-0---0-|-2----|
E|-0---2-|-3----|-------|------|-0---2-|-3----|-------|------|

e|--------------|-----------------|----------------|------|
B|--------------|-----------------|----------------|------|
G|--------------|-----------------|----------------|------|  
D|--------------|-----------------|----------------|------|    X 2
A|-7-6-7/9--7-9/|/10---10----9-10/|/12\10\9/10\9\7\|\6----|
E|--------------|-----------------|----------------|------|

e|----------|-----|------|------|
B|----------|-----|------|------|
G|----------|-----|------|------|
D|----------|-----|------|------|
A|----------|-----|------|------|
E|-X\\\\\\\\|0----|-0----|-0----|
     
SYNTH BASS (BIT HARD)
              
e|-----------------------|-----------------------|-----------------------|
B|-------------------5---|-------------------5---|-----------------------|
G|-------------4---4-----|-------------4---4-----|-------------------7---|
D|-------5---5---5-------|-------5---5---5-------|-------------9---9-----|
A|-7---7---7-------------|-7---7---7-------------|-5---5-9-5-9---9-------|
E|---7-----------------7-|---7-----------------7-|---7-----------------7-|

e|-----------------------|-----------------------|
B|-----------------------|-----------------------|
G|-------------------7---|-------------------6---|
D|-------------9---9-----|-------------7---7-----|   REPAT A FEW TIMES
A|-5---5-9-5-9---9-------|-4---4-7-4-7---7-------|
E|---7-----------------7-|---5-----------------7-|

ELECTRIC GUITAR (PALM MUTE)

e|-------------------------|-------------------------|-------------------------|
B|-------------------------|-------------------------|-------------------------|
G|-9-----9-----9-----9-9-9-|-9-----9-----9-----9-9-9-|-7-----7-----7-----7-----|
D|---9-----9-----9---------|---9-----9-----9---------|---9-----9-----9-----9---|
A|-----7-----7-----7-------|-----7-----7-----7-------|-----9-----9-----9-----9-|
E|-------------------------|-------------------------|-------------------------|

e|-------------------------|-------------------------|-------------------------|
B|-------------------------|-------------------------|-------------------------|
G|-7-----7-----7-----7-----|-6-----6-----6-----6-----|-6-----6-----6-----6-----|
D|---9-----9-----9-----9---|---7-----7-----7-----7---|---7-----7-----7-----7---|
A|-----9-----9-----9-----9-|-----7-----7-----7-----7-|-----7-----7-----7-----7-|
E|-------------------------|-------------------------|-------------------------|

e|-------------------------|-------------------------|
B|-------------------------|-------------------------|
G|-9-----9-----9-----9-9-9-|-9-----9-----9-----9-9-9-| REPEAT A FEW TIMES
D|---9-----9-----9---------|---9-----9-----9---------|
A|-----7-----7-----7-------|-----7-----7-----7-------|
E|-------------------------|-------------------------|

e|---------------------|-----------------------|---------------------|
B|---------------------|-----------------------|---------------------|
G|---------------------|-----------------------|---------------------|
D|---------------------|---------------7-5-----|---------------------|
A|-5h7-7-7-7-5h7-7-7-7-|-5h7-7-7-7-5h7-----7p5-|-5p2-2-2-2-5p2-2-2-2-|
E|---------------------|-----------------------|---------------------|

e|-----------------------|-------------------|-----------------------|
B|-----------------------|-------------------|-----------------------|
G|-----------------------|-------------------|-----------------------|
D|-----------------------|-------------------|-----------------------|
A|-5p2-2-2-2-5p2-7-5h7-7-|-7p0-0-0-0-7p0-0-0-|-7p0-0-0-0-7p0-0-2p0---|
E|-----------------------|-------------------|---------------------3-|

e|---------------------|-----------------------|
B|---------------------|-----------------------|
G|---------------------|-----------------------|
D|---------------------|-----------------------| X5 (I think)
A|---------------------|-----------------------|
E|-3p0-0-0-0-3p0-0-0-0-|-3p0-0-0-0-3p0-0-5-7-0-|

e|---------------------|-----------------------|---------------------|-----------------------|
B|---------------------|-----------------------|---------------------|-----------------------|
G|---------------------|-----------------------|---------------------|-----------------------|X2
D|---------------------|-----------------------|---------------------|-----------------------|
A|---------------------|-----------------0-1-2-|---------------------|-----------5h7-7-5h7-7-|
E|-3p0-0-0-0-3p0-0-0-0-|-3p0-0-0-0-3p0-0-------|-3p0-0-0-0-3p0-0-0-0-|-3p0-0-0-0-------------|

END ON

e|-------|
B|-------|
G|-------|
D|-------|
A|-------|
E|-0-----|


| /  slide up
| \  slide down
| h  hammer-on
| p  pull-off
| ~  vibrato
| +  harmonic
| x  Mute note
| :) Smile Emokids
Suggest correction
comments
print report bad tab
11 comments total. Showing first comments.
0 reply
sam allen rules 206 Jan 08, 2007 02:25 PM

oop sorry i miseed some of the tremolo picking at the start but i'm sure you can use the other versions for that

0 reply
Intense_conn 10 Jan 08, 2007 02:51 PM

ace man! you keep going with the muse tabs they're awesome man

0 reply
sam allen rules 206 Jan 08, 2007 03:10 PM

^that guy stalks me, it's really scary

guest
You may want to rate the tab now too:
select rating
Wanna post a correction for this tab? Suggest correction