Oops, an error
Loading. Please wait.

Madness Bass Tab

version 1
version 1

Whole song

by Muse
44,843 views 93 this week
5 commentsread comments
1 2 3 4 5
excellent!
x 33
add to favorites
launch autoscroll
font size
0
reset
guitar tuner
Autoscroll
slow
fast
+/-
esc
set tempo
stop
Help us to improve Ultimate-Guitar.com Take our survey!
×
Contributor
Difficulty
4useless 2,774
novice
Band: Muse
Song: Madness
Album: The 2nd Law (2012)
Bassist: Chris Wolstenholme
Tuning: Standard

Chris plays this song on Misa Digital Kitara.

Intro:

G|-------------------------|
D|8-8-8-8-8-8-8-8----------|
A|-------------------------| 
E|----------------6--6--6--| x4

Verse:

G|-------------------------|    |----------------|----------------| 
D|8-8-8-8-8-8-8-8----------|    |----------------|----------------| 
A|-------------------------|    |6--6--6--6--5---|6--6--6--6--5-6-| 
E|----------------6--6--6--| x4 |----------------|----------------| 

G|-------------------------|    |----------------|----------------| 
D|8-8-8-8-8-8-8-8----------|    |----------------|----------------| 
A|-------------------------|    |6--6--6--6--5---|6--6--6--6--5-6-| 
E|----------------6--6--6--| x6 |----------------|----------------| 

G|-------------------------|
D|8-8-8-8-8-8-8-8----------|
A|-------------------------|
E|----------------6--6--6--| x2

Chorus:

G|--------------------------------|--------------------|----------------|----------------| 
D|--------------------------------|--------------------|----------------|----------------| 
A|1010--1010--1010--1010--1010--10|8--88--88--88--88-88|6--6--6--6--5---|6--6--6--6--5-6-| 
E|--------------------------------|--------------------|----------------|----------------| x2
                                                       
Bridge:

G|-------------------------|     |-------------------------|
D|8-8-8-8-8-8-8-8----------|     |8-8-8-8-8--8---8---------|
A|-------------------------|     |-------------------------|
E|----------------6--6--6--| x3  |----------------6--6--6--|

Verse:

G|-------------------------|    |----------------|----------------| 
D|8-8-8-8-8-8-8-8----------|    |----------------|----------------| 
A|-------------------------|    |6--6--6--6--5---|6--6--6--6--5-6-| 
E|----------------6--6--6--| x4 |----------------|----------------| 

G|-------------------------|    |----------------|----------------| 
D|8-8-8-8-8-8-8-8----------|    |----------------|----------------| 
A|-------------------------|    |6--6--6--6--5---|6--6--6--6--5-6-| 
E|----------------6--6--6--| x6 |----------------|----------------| 

G|-------------------------|
D|8-8-8-8-8-8-8-8----------|
A|-------------------------|
E|----------------6--6--6--| x2

Chorus:

G|--------------------------------|--------------------|----------------|----------------| 
D|--------------------------------|--------------------|----------------|----------------| 
A|1010--1010--1010--1010--1010--10|8--88--88--88--88-88|6--6--6--6--5---|6--6--6--6--5-6-| 
E|--------------------------------|--------------------|----------------|----------------| x2

Bridge:

G|-------------------------|     |-------------------------|
D|8-8-8-8-8-8-8-8----------|     |8-8-8-8-8--8---8---------|
A|-------------------------|     |-------------------------|
E|----------------6--6--6--| x3  |----------------6--6--6--|

Guitar solo:

G|-------------------------|    |----------------|----------------| 
D|8-8-8-8-8-8-8-8----------|    |----------------|----------------| 
A|-------------------------|    |6--6--6--6--5---|6--6--6--6--5-6-| 
E|----------------6--6--6--| x4 |----------------|----------------|  

G|-------------------------|
D|8-8-8-8-8-8-8-8----------|
A|-------------------------|
E|----------------6--6--6--| x2

Last chorus (this is where electric bass comes in):

G|---------|--------|----------------|----------------|
D|---------|--------|----------------|----------------|
A|10(x16)--|8(x16)--|6666666666665555|6666666666665566|
E|---------|--------|----------------|----------------| x8

Outro:

G|-------------------------|     |-------------------------|
D|8-8-8-8-8-8-8-8----------|     |8-8-8-8-8--8---8---------|
A|-------------------------|     |-------------------------|
E|----------------6--6--6--| x3  |----------------6--6--6--|
Suggest correction new What's this?
You can suggest a correction to this tab. Community and Mods will review your correction and vote to approve or reject it.
comments
print report bad tab
5 comments total. Showing first comments.
0 reply
Rule Britannia 561 wrote on November 20 2012, 05:45 pm

The notes a right and so long as you're playing along with the song you can pick the rhythm up yourself. Thanks!

0 reply
jdetres01 796 wrote on December 30 2012, 02:30 pm

idk who didnt give this 5 stars, its perfect, great job!

0 reply
4useless 2,774 wrote on December 31 2012, 06:00 am

One guy month ago gave me 1 star :)

guest
You may want to rate the tab now too:
select rating
Please do not post tabs as comments. Select "correction" instead!