Oops, an error
Loading. Please wait.

Map Of The Problematique Tab

version 6
by Muse
7,423 views 1 this week
no commentswrite comment
1 2 3 4 5
1 last vote to show rating
add to favorites
launch autoscroll
font size
0
reset
how to read this tab
guitar tuner
Autoscroll
slow
fast
+/-
esc
set tempo
stop
Help us to improve Ultimate-Guitar.com Take our survey!
×
Author
Difficulty
Tuning
intermediate
C F A# D# G C
Map of the Problematique
Played by MUSE

======================
e|-|
B|-|
G|5| 4x
D|5|
A|3|
C|-|
======================

======================
Chorus:
e|---|---|---|---|
B|---|---|---|---|
G|---|---|---|---| 4x
D|---|---|---|---|
A|---|---|---|---|
C|-0-|-3-|-8-|-5-|
======================

======================
Main riff:
e|---|---|---|---|
B|-4-|-4-|-4-|-3-|
G|-5-|-5-|-5-|-5-| 2x
D|---|---|-6-|-3-|
A|-3-|-6-|---|---|
C|---|---|---|---|
======================

======================
Verse:
e|---|---|---|-----|
B|---|---|---|-----|
G|-5-|-5-|-5-|-5-7-|
D|---|---|---|-----|
A|-3-|-3-|-3-|-3-5-|
C|---|---|---|-----|

e|---|---|---|-----|
B|---|---|---|-----|
G|-8-|-8-|-8-|-10-7|
D|---|---|---|-----|
A|-6-|-6-|-6-|--8-5|
C|---|---|---|-----|

e|---|---|---|-----|
B|---|---|---|-----|
G|-5-|-5-|-5-|-5-7-|
D|---|---|---|-----|
A|-3-|-3-|-3-|-3-5-|
C|---|---|---|-----|

e|---|---|---|----|
B|---|---|---|----|
G|-8-|-8-|-8-|-10-|
D|---|---|---|----|
A|-6-|-6-|-6-|--8-|
C|---|---|---|----|
======================

====================================
Bridge:
e|----------------|----------------|
B|-4-4-4-4-4-4-3--|----------------|
G|---------------5|-7-7-7-7-7-7-5--|
D|----------------|---------------8|
A|-3-3-3-3-3-3-3-3|-6-6-6-6-6-6-6-6|
C|----------------|----------------|

e|----------------|----------------|
B|----------------|----------------|
G|-5-5-5-5-5-5----|----------------|
D|-------------8-8|-6-6-5-5-5-5-5-5|
A|-6-6-6-6-6-6-6-6|-3-3-3-3-3-3-3-3|
C|----------------|----------------|
====================================

======================
Chorus:
e|---|---|---|---|
B|---|---|---|---|
G|---|---|---|---| 4x
D|---|---|---|---|
A|---|---|---|---|
C|-0-|-3-|-8-|-5-|
======================

======================
e|-8-|-8-|-8-|-8-|
B|-8-|-8-|-8-|-8-|
G|-5-|-5-|-5-|-5-|
D|---|---|---|---|
A|---|---|---|---|
C|---|---|---|---|
======================

======================
Main riff:
e|---|---|---|---|
B|-4-|-4-|-4-|-3-|
G|-5-|-5-|-5-|-5-| 2x
D|---|---|-6-|-3-|
A|-3-|-6-|---|---|
C|---|---|---|---|
======================

======================
Verse:
e|---|---|---|-----|
B|---|---|---|-----|
G|-5-|-5-|-5-|-5-7-|
D|---|---|---|-----|
A|-3-|-3-|-3-|-3-5-|
C|---|---|---|-----|

e|---|---|---|-----|
B|---|---|---|-----|
G|-8-|-8-|-8-|-10-7|
D|---|---|---|-----|
A|-6-|-6-|-6-|--8-5|
C|---|---|---|-----|

e|---|---|---|-----|
B|---|---|---|-----|
G|-5-|-5-|-5-|-5-7-|
D|---|---|---|-----|
A|-3-|-3-|-3-|-3-5-|
C|---|---|---|-----|

e|---|---|---|----|
B|---|---|---|----|
G|-8-|-8-|-8-|-10-|
D|---|---|---|----|
A|-6-|-6-|-6-|--8-|
C|---|---|---|----|
======================

====================================
Bridge:
e|----------------|----------------|
B|-4-4-4-4-4-4-3--|----------------|
G|---------------5|-7-7-7-7-7-7-5--|
D|----------------|---------------8|
A|-3-3-3-3-3-3-3-3|-6-6-6-6-6-6-6-6|
C|----------------|----------------|

e|----------------|----------------|
B|----------------|----------------|
G|-5-5-5-5-5-5----|----------------|
D|-------------8-8|-6-6-5-5-5-5-5-5|
A|-6-6-6-6-6-6-6-6|-3-3-3-3-3-3-3-3|
C|----------------|----------------|
====================================

======================
Main riff (played softly):
e|---|---|---|---|
B|-4-|-4-|-4-|-3-|
G|-5-|-5-|-5-|-5-| 6x
D|---|---|-6-|-3-|
A|-3-|-6-|---|---|
C|---|---|---|---|
======================

======================
e|-8-|-8-|-8-|-8-|
B|-8-|-8-|-8-|-8-|
G|-5-|-5-|-5-|-5-|
D|---|---|---|---|
A|---|---|---|---|
C|---|---|---|---|
======================
Suggest correction
Give kudos to tab author, rate the tab!
1 2 3 4 5
comments
print report bad tab
guest
You may want to rate the tab now too:
select rating
Wanna post a correction for this tab? Suggest correction