Oops, an error
Loading. Please wait.
We have an official Mercy tab made by UG professional guitarists. Check out the tab »
×

Mercy bass

version 2
version 2

Whole song

Interactive

by Muse
1,033 views 3 this week
no commentswrite comment
1 2 3 4 5
2 more votes to show rating
add to favorites
×
Save as Personal and add changes to this tab that will be seen only by you. Learn more ›
×
You can save this tab as Personal to edit and correct it or add notes. All changes will be seen only by you. Learn more »
launch autoscroll
font size
0
reset
guitar tuner
backing track
0:00
0:00
edit
Autoscroll
slow
fast
+/-
esc
set tempo
stop
Author
-------------------------------------------------------------------------------
                             MERCY - Muse
-------------------------------------------------------------------------------
Tabbed by: MarianMUSEr
Originally played by: Chris Wolstenholme (Muse)

I found two versions with different tunings on the internet, but in my opinion it's
a standart tuning, here ( https://www.youtube.com/watch?v=RHTYil3oz34 ) you can see
and hear the bass pretty well.
That's my first tab in the internet, I would enjoy constructive critic, but I actually saw live 
how Chris plays it. 


Tuning: Standart EADG

Intro/Verse 1:
G|---------------------------12--------------------9-----------------------------------|
D|-------10------------------------------12----------------9---------12-------12-12-11-|
A|---------------------10-10----10-10-10----10-7-7---7-7-7---7-------------------------| x6
E|---8-8----8-8-7-8-10-----------------------------------------10-10----10-10----------|

Chorus:

G|---------------------------------------------------------------------------|
D|---------------------------------------------------------------------------|
A|-3-3-3-3-3-3-3-3---------------------------------5-5-5-5-5-5-5-5-----------| 
E|-----------------3-3-3-3-3-3-3-3-0-0-0-0-0-0-0-0---------------------------|

G|---------------------------------------------------------------------------|
D|---------------------------------------------------------------------------|
A|-3-3-3-3-3-3-3-3-----------------------------------------------------------| 
E|-----------------3-3-3-3-3-3-3-3-0-0-0-0-0-0-0-0---------------------------|

G|---------------------------------------------------------------------------|
D|---------------------------------------------------------------------------|
A|-3-3-3-3-3-3-3-3---------------------------------5-5-5-5-5-5-5-5-----------| 
E|-----------------3-3-3-3-3-3-3-3-0-0-0-0-0-0-0-0---------------------------|

G|---------------------------------------------------------|
D|---------------------------------------------------------|
A|-3-3-3-3-3-3-3-3-----------------7-7-7-7-7-7-7-7-5~~~~---|
E|-----------------3-3-3-3-3-3-3-3-------------------------|

Verse 2: 

G|------------------------------------12----------16-------17-17-16-------14----------------|
D|-----10-----------------12----------------14-14----14-14----------12-12----12-12----------|
A|------------7-8-9-10-10----10-10-10----10-------------------------------------------------|
E|-8-8----8-8----------------------------------------------------------------------10-10-9--|

G|-------------------------12--------------------9-----------------------------------|
D|-----10------------------------------12----------------9---------12-------12-12-11-|
A|-------------------10-10----10-10-10----10-7-7---7-7-7---7-------------------------| x4 only 
E|-8-8----8-8-7-8-10-----------------------------------------10-10----10-10----------| this line

Chorus 2:

G|---------------------------------------------------------------------------|
D|---------------------------------------------------------------------------|
A|-3-3-3-3-3-3-3-3---------------------------------5-5-5-5-5-5-5-5-----------| 
E|-----------------3-3-3-3-3-3-3-3-0-0-0-0-0-0-0-0---------------------------|

G|---------------------------------------------------------------------------|
D|---------------------------------------------------------------------------|
A|-3-3-3-3-3-3-3-3-----------------------------------------------------------| 
E|-----------------3-3-3-3-3-3-3-3-0-0-0-0-0-0-0-0---------------------------|

G|---------------------------------------------------------------------------|
D|---------------------------------------------------------------------------|
A|-3-3-3-3-3-3-3-3---------------------------------5-5-5-5-5-5-5-5-----------| 
E|-----------------3-3-3-3-3-3-3-3-0-0-0-0-0-0-0-0---------------------------|

G|-------------------------------------------------------------|
D|-------------------------------------------------------------|
A|-3-3-3-3-3-3-3-3-----------------7-7-7-7-7-7-7-7-5~~~~-4-5-7-|
E|-----------------3-3-3-3-3-3-3-3-----------------------------|

Bridge: 

G|-------------------------|
D|-------------------------|
A|-10-10-10-10-10-10-10-10-| x7
E|-------------------------|

G|------------------------|
D|------------------------|
A|-10-10-10-10-10-9-10-12-| 
E|------------------------|

G|----------------17----------------------16----------------------16----------------------14-------|
D|-------17-------------17-------17-------------17-------17-------------17-------16-------------16-|
A|-15-15----15-15----15----14-14----14-14----14----14-14----14-14----14----12-12----12-12----12----|
E|-------------------------------------------------------------------------------------------------|

G|----------------12----------------------12----------------------12------------------11------|
D|-------14-------------14-------12-------------12-------12-------------12-----12----------12-|
A|-10-10----10-10----10----10-10----10-10----10----10-10----10-10----10----9-9----9-9----9----|
E|--------------------------------------------------------------------------------------------|

Here starts the vocal part again ("Help me..")

G|------------9----------------7---------------9---------------7-7-6-|
D|-----10---------10-----9---------9-----9---------9-----7-----------|
A|-7-7----7-7---7----5-5---5-5---5---7-7---7-7---7---5-5---5-5-------|
E|-------------------------------------------------------------------|


G|--------------------------------12-------------16-------17----16-------14----------------|
D|-----------------------12-------------12-14-14----14-14----14----12-12----12-12----------|
A|-3-3-3-3-3-7-8-9-10-10----10-10----10----------------------------------------------------|
E|--------------------------------------------------------------------------------10-10-9--|

Chorus 3: 
G|---------------------------------------------------------------------------|
D|---------------------------------------------------------------------------|
A|-3-3-3-3-3-3-3-3---------------------------------5-5-5-5-5-5-5-5-----------| x3
E|-----------------3-3-3-3-3-3-3-3-0-0-0-0-0-0-0-0---------------------------|

G|-----------------------------------------------------------------|
D|-----------------------------------------------------------------|
A|-3-3-3-3-3-3-3-3-----------------7-7-7-7-7-7-7-7-5-5-5-5-5-5-5-5-|
E|-----------------3-3-3-3-3-3-3-3---------------------------------| 

G|-----------------------------------------------------|
D|-----------------------------------------------------|
A|-3-3-3-2-2-2-7-7-7-5-5-5-10-10-9--3~--2~-------------|
E|------------------------------------------0~~~~~~~---|

| /  slide up
| \  slide down
| h  hammer-on
| p  pull-off
| ~  vibrato
| +  harmonic
| x  Mute note
===============================================================================

            
            
Suggest correction
Creating personal tab
Creating personal tab
You can edit any tab online and save it as your Personal.

You can edit, replace or remove any tab part or add personal notes – all changes will be seen only by you.

Personal tabs can be accessed anytime from any device, even offline.
Learn more »
Give kudos to tab author, rate the tab!
1 2 3 4 5
comments
print report bad tab
guest
You may want to rate the tab now too:
select rating
Wanna post a correction for this tab? Suggest correction