Oops, an error
Loading. Please wait.

Micro Cuts Bass Tab

version 4
version 4
by Muse
7,260 views 15 this week
1 commentread comment
1 2 3 4 5
x 3
add to favorites
launch autoscroll
font size
0
reset
guitar tuner
Autoscroll
slow
fast
+/-
esc
set tempo
stop
Help us to improve Ultimate-Guitar.com Take our survey!
×
Author
Difficulty
Tuning
novice
D A D G B E
Band: Muse
Song: Micro Cuts
Album: Origin of Simmetry (2002)
Bassist: Chris Wolstenholme
Tuning: Dropped D

Tip: Throughout the song You can hear double beat time after time. 
Just play these beats louder than other notes. 
Also You can play verse softly to get those beats loud. 
Chorus, bridge and ending play like always.

Intro and Verse:

G|--------|--------|--------|--------|
D|--------|--------|--------|--------|
A|55555555|55555555|55555555|55555555|
D|--------|--------|--------|--------| x2

G|-------------------------------------------------------------|
D|-------------------------------------------------------------|
A|5(x8)--7(x8)--8(x4)--9(x4)--10(x20)--5(x12)--4(x12)--5(x24)--| 
D|-------------------------------------------------------------| x2

G|-------------------------------------------------------------|
D|-------------------------------------------------------------|
A|5(x8)--7(x8)--8(x4)--9(x4)--10(x20)--5(x12)--0(x12)--5(x12)--| 
D|-------------------------------------------------------------|

G|------------|
D|------------|
A|55--55--55--|
D|------------|

Chorus:

G|--------------------|
D|--------------------|
A|--------------------|
D|5(x8)--0(x8)--5(x16)| x2

G|------------------------------------|
D|------------------------------------|
A|------------------------------------|
D|5(x8)--0(x8)--5(x8)--6(x8)--7(x32)--|

Verse:

G|--------|--------|--------|--------|
D|--------|--------|--------|--------|
A|55555555|55555555|55555555|55555555|
D|--------|--------|--------|--------|

G|-------------------------------------------------------------|
D|-------------------------------------------------------------|
A|5(x8)--7(x8)--8(x4)--9(x4)--10(x20)--5(x12)--4(x12)--5(x24)--| 
D|-------------------------------------------------------------| 

G|-------------------------------------------------------------|
D|-------------------------------------------------------------|
A|5(x8)--7(x8)--8(x4)--9(x4)--10(x20)--5(x12)--0(x12)--5(x12)--| 
D|-------------------------------------------------------------|

G|------------|
D|------------|
A|55--55--55--|
D|------------|

Chorus:

G|--------------------|
D|--------------------|
A|--------------------|
D|5(x8)--0(x8)--5(x16)| x2

G|------------------------------------|--------|
D|------------------------------------|--------|
A|------------------------------------|5\------|
D|5(x8)--0(x8)--5(x8)--6(x8)--7(x32)--|--------|

no bass till 2:42

Bridge:

G|----------------------------------------|
D|----------------------------------------|
A|5(x16)--7(x12)--10(x4)--9(x16)-12(x12)--|
D|----------------------------------------|

G|---------------------------------------------|
D|---------------------------------------------|
A|--------5(x8)--4(x8)--12(x4)--7(x4)----------|
D|5(x8)--------------------------------7(x32)--|

no bass till 3:12

Ending:

G|--------|--------|--------|--------|--------|
D|--------|--------|--------|--------|--------|
A|5430----|------34|5430----|------34|5-------|
D|----6530|305670--|----6530|305670--|--------|

no bass till 3:25

G|--------|    |---------|
D|--------|    |---------|
A|5430----|    |---------|
D|----6530| x8 |--0--0--0|
Suggest correction
Give kudos to tab author, rate the tab!
1 2 3 4 5
comments
print report bad tab
1 comment total.
+2 reply
jamesmuse 10 May 04, 2011 07:18 PM

Great Job! not many people pick up on the continuous bass..

guest
You may want to rate the tab now too:
select rating
Wanna post a correction for this tab? Suggest correction