Oops, an error
Loading. Please wait.

Mk Ultra Tab

version 2
version 2
by Muse
148,381 views 276 this week
14 commentsread comments
1 2 3 4 5
excellent!
x 50
add to favorites
launch autoscroll
font size
0
reset
how to read this tab
guitar tuner
Autoscroll
slow
fast
+/-
esc
set tempo
stop
Help us to improve Ultimate-Guitar.com Take our survey!
×
Contributor
Tuning
xtrecate 406
D A D G B E
Muse - MK Ultra
Album: The Resistance

Tabbed by: Eric A.
two2twelve@gmail.com


Drop D Tuning: D A D G B E

Verified from the Making Of The Resistance DVD.


[0:00]

(Synth Effect, Delay)
                                                                                                  
E|-13----12-13----12-13-------13-------13-------13-------13-------13-------15-------15-------15----|
B|----10-------10-------10-11----10-11----10-11----10-13----10-13----10-13----12-13----12-13----12-|
G|-------------------------------------------------------------------------------------------------|
D|-------------------------------------------------------------------------------------------------|
A|-------------------------------------------------------------------------------------------------|
D|-------------------------------------------------------------------------------------------------|


E|-------17-------17-------18-------18-------18-------13-17----13-17----13-15-13-12----13-12--------|
B|-13/15----13-15----13-15----15-18----15-18----15-13-------13-------13-------------14-------14\11~-|
G|--------------------------------------------------------------------------------------------------|
D|--------------------------------------------------------------------------------------------------|
A|--------------------------------------------------------------------------------------------------|
D|--------------------------------------------------------------------------------------------------|(x2)


[0:25]

            (x11)
E|--------------|---------------------------------------------------------------------|
B|--10-10-10-10-|-10-10b11-11-11-11-11-11-11-11b10-10-10-10-10-10-10-10\8-8-8-8-8-8-8-|
G|--------------|---------------------------------------------------------------------|
D|--------------|---------------------------------------------------------------------| 
A|--------------|---------------------------------------------------------------------|
D|--------------|---------------------------------------------------------------------|(x2)


[0:50]

E|-13----12-13----12-13-------13-------13-------13-------13-------13-------15-------15-------15----|
B|----10-------10-------10-11----10-11----10-11----10-13----10-13----10-13----12-13----12-13----12-|
G|-------------------------------------------------------------------------------------------------|
D|-------------------------------------------------------------------------------------------------|
A|-------------------------------------------------------------------------------------------------|
D|-------------------------------------------------------------------------------------------------|


E|-------17-------17-------18-------18-------18-------13-17----13-17----13-15-13-12----13-12--------|
B|-13/15----13-15----13-15----15-18----15-18----15-13-------13-------13-------------14-------14\11~-|
G|--------------------------------------------------------------------------------------------------|
D|--------------------------------------------------------------------------------------------------|
A|--------------------------------------------------------------------------------------------------|
D|--------------------------------------------------------------------------------------------------|


[1:02]
                   (x2)                 (x2)                 (x2)                 (x2)
E|--------------------|--------------------|--------------------|--------------------|
B|--3-3-3--3-3-3-x-x--|--5-5-5--5-5-5-x-x--|--2-2-2--2-2-2-x-x--|--6-6-6--6-6-6-x-x--|
G|--3-3-3--3-3-3-x-x--|--5-5-5--5-5-5-x-x--|--2-2-2--2-2-2-x-x--|--7-7-7--7-7-7-x-x--|
D|--3-3-3--3-3-3-x-x--|--5-5-5--5-5-5-x-x--|--2-2-2--2-2-2-x-x--|--7-7-7--7-7-7-x-x--|
A|--1-1-1--1-1-1-x-x--|--3-3-3--3-3-3-x-x--|--4-4-4--4-4-4-x-x--|--5-5-5--5-5-5-x-x--|
D|--------------------|--------------------|--------------------|--------------------|


E|---------------------------------------------5---------5-----5-----5----|
B|--11---11---10---10---8---8---6---6--------5---5---5-----------5--------|
G|-----9----9----9----9---7---7---5---5----6-------6---6-----6-----6---6--|
D|---------------------------------------7-----------------7--------------|
A|------------------------------------------------------------------------|
D|------------------------------------------------------------------------|


[1:20]
                                                                                           (x3)
E------------------------------------------------------------------------------|--------------|
B------------------------------------------------------------------------------|--------------|
G------------------------------------------------------------------------------|--------------|
D------------------------------------------------------------------------------|--------------|  
A------------------------------------------------------------------------------|--------------|
D--12-12--12--12~\--12-12--12--11~\--10-10--10--10~\--9-9--9--9~\--8-8--8--8~\-|--7-7--7--7~\-|(x2)
  PM--------|      PM--------|      PM--------|      PM-----|     PM-----|       PM-----| 


E|----------|
B|----------|
G|----------|
D|----------|
A|----------|
D|--//--\\--|


[2:10]

E|-------------------|
B|-------------------|
G|-------------------|
D|-------------------|
A|----------------5--|
D|--0-0-3-0-5-7-0----|(x4)


[2:16]

             (x11)
E|---------------|-----------------------------------------------------------------------|
B|--10-10-10-10--|--10-10b11-11-11-11-11-11-11-11b10-10-10-10-10-10-10-10\8-8-8-8-8-8-8--|
G|---------------|-----------------------------------------------------------------------|
D|---------------|-----------------------------------------------------------------------|
A|---------------|-----------------------------------------------------------------------|
D|---------------|-----------------------------------------------------------------------|

                                   (x10)
E|---------------------|---------------|---------------------|--------------------------|
B|--10p8h10p8h10p8h10--|--10-10-10-10--|--10p8h10p8h10p8h10--|-10-10-10-10-10-10-10-10--|
G|---------------------|---------------|---------------------|--------------------------|
D|---------------------|---------------|---------------------|--------------------------|
A|---------------------|---------------|---------------------|--------------------------|
D|---------------------|---------------|---------------------|--------------------------|


E|-----------------------------------------------------------------------|
B|--10-10b11-11-11-11-11-11-11-11b10-10-10-10-10-10-10-10\8-8-8-8-8-8-8--|
G|-----------------------------------------------------------------------|
D|-----------------------------------------------------------------------|
A|-----------------------------------------------------------------------|
D|-----------------------------------------------------------------------|


[2:40]

E|-13----12-13----12-13-------13-------13-------13-------13-------13-------15-------15-------15----|
B|----10-------10-------10-11----10-11----10-11----10-13----10-13----10-13----12-13----12-13----12-|
G|-------------------------------------------------------------------------------------------------|
D|-------------------------------------------------------------------------------------------------|
A|-------------------------------------------------------------------------------------------------|
D|-------------------------------------------------------------------------------------------------|


E|-------17-------17-------18-------18-------18-------13-17----13-17----13-15-13-12----13-12--------|
B|-13/15----13-15----13-15----15-18----15-18----15-13-------13-------13-------------14-------14\11~-|
G|--------------------------------------------------------------------------------------------------|
D|--------------------------------------------------------------------------------------------------|
A|--------------------------------------------------------------------------------------------------|
D|--------------------------------------------------------------------------------------------------|


[2:53]

                   (x2)                 (x2)                 (x2)                 (x2)
E|--------------------|--------------------|--------------------|--------------------|
B|--3-3-3--3-3-3-x-x--|--5-5-5--5-5-5-x-x--|--2-2-2--2-2-2-x-x--|--6-6-6--6-6-6-x-x--|
G|--3-3-3--3-3-3-x-x--|--5-5-5--5-5-5-x-x--|--2-2-2--2-2-2-x-x--|--7-7-7--7-7-7-x-x--|
D|--3-3-3--3-3-3-x-x--|--5-5-5--5-5-5-x-x--|--2-2-2--2-2-2-x-x--|--7-7-7--7-7-7-x-x--|
A|--1-1-1--1-1-1-x-x--|--3-3-3--3-3-3-x-x--|--4-4-4--4-4-4-x-x--|--5-5-5--5-5-5-x-x--|
D|--------------------|--------------------|--------------------|--------------------|


E|---------------------------------------------5---------5-----5-----5----|
B|--11---11---10---10---8---8---6---6--------5---5---5-----------5--------|
G|-----9----9----9----9---7---7---5---5----6-------6---6-----6-----6---6--|
D|---------------------------------------7-----------------7--------------|
A|------------------------------------------------------------------------|
D|------------------------------------------------------------------------|


[3:12]

     (x16)    (x8)    (x8)   (x16)   (x16)   (x16)      
E|-------|-------|-------|-------|-------|-------|
B|---8---|---5---|---2---|---4---|---3---|---3---|
G|---7---|---7---|---2---|---5---|---6---|---3---|
D|---7---|---6---|---2---|---5---|---5---|---3---|
A|---5---|---7---|---4---|---3---|---5---|---1---|
D|-------|-------|-------|-------|-------|-------|

                                              (x4)
E|-----------------------------------|-----------|-----------|---------|-----------|
B|--8-------7-------6-------5--------|--6--------|--5--------|--5------|-----------|
G|----7---7---7---7---7---7---7---7--|----7---7--|----6---6--|----6----|-----------|
D|------7-------7-------7-------7----|------7----|------7----|------7--|-----------|
A|-----------------------------------|-----------|-----------|---------|-----------|
D|-----------------------------------|-----------|-----------|---------|--//22\\T--|


[3:37]

E|------------------|------------------|------------------|-------------------|-------------------|
B|------------------|------------------|------------------|-------------------|-------------------|
G|------------------|------------------|------------------|-------------------|-------------------|
D|------------------|------------------|------------------|-------------------|-------------------|
A|---------------5\-|---------------7\-|---------------8\-|---------------10\-|---------------12\-|
D|-0-0-3-0-5-7-0----|-0-0-3-0-5-7-0----|-0-0-3-0-5-7-0----|-0-0-3-0-5-7-0-----|-0-0-3-0-5-7-0-----|(x4)

E|--------------------|-------------------|-------------------|-------------------|
B|--------------------|-------------------|-------------------|-------------------|
G|--------------------|-------------------|-------------------|-------------------|
D|--------------------|-------------------|-------------------|-------------------|
A|----------------13\-|---------------14\-|---------------15\-|---------------17\-|
D|--0-0-3-0-5-7-0-----|-0-0-3-0-5-7-0-----|-0-0-3-0-5-7-0-----|-0-0-3-0-5-7-0-----|(x5)

E|----------------------|
B|----------------------|
G|----------------------|
D|----------------------|
A|--------------17~\\-x-|
D|-0-0-3-0-5-7-0--------|

************************************

| x  Dead note
| h  Hammer-on
| p  Pull-off
| b  Bend
| /  Slide up
| \  Slide down
| ~  Vibrato
| pm palm mute
| T  tremolo

************************************
Suggest correction What's this?
You can suggest a correction to this tab. Community and Mods will review your correction and vote to approve or reject it.
comments
print report bad tab
14 comments total. Showing first comments.
+1 reply
hippi901 349 wrote on November 10 2009, 10:07 am

thanks its great!

0 reply
arshdeep8 14 wrote on January 2 2010, 08:38 am

brilliant tab man!

+1 reply
Squadron16 10 wrote on January 11 2010, 08:17 pm

Sorry to say this but your chorus is wrong. :(

I want to post or [tab]
guest
You may want to rate the tab now too:
select rating
Please do not post tabs as comments. Select "correction" instead!