Oops, an error
Loading. Please wait.

Mk Ultra Bass Tab

version 5
by Muse
411 views 1 this week
no commentswrite comment
1 2 3 4 5
please rate
add to favorites
launch autoscroll
font size
0
reset
guitar tuner
Autoscroll
slow
fast
+/-
esc
set tempo
stop
Help us to improve Ultimate-Guitar.com Take our survey!
×
Author
Difficulty
Tuning
intermediate
D A D G B E
                                       MK Ultra
                                         MUSE
                                    The Resistance

Tuning: DADG



Intro (Riff)
G|-----------------------|-----------------------|---------------|---------------|
D|-----------------------|-----------------------|---------------|---------------|
A|-----------------------|-----------------------|---------------|---------------|
D|-----------------------|-----------------------|---------------|---------------|

G|-----------------------|-----------------------|---------------|---------------|
D|12-12-12-12-12-12-12-12|12-12-12-12-12-12-12-12|3-3-3-3-3-3-3-3|7-7-7-7-7-7-7-7|
A|-----------------------|-----------------------|---------------|---------------|
D|-----------------------|-----------------------|---------------|---------------|

G|---------------|---------------|---------------|-----------------------|
D|0-0-0-0-0-0-0-0|0-0-0-0-0-0-0-0|3-3-3-3-3-3-3-3|10-10-10-10-10-10-10-10|
A|---------------|---------------|---------------|-----------------------|
D|---------------|---------------|---------------|-----------------------|

G|-----------------------|-----------------------|---------------|---------------|
D|12-12-12-12-12-12-12-12|12-12-12-12-12-12-12-12|3-3-3-3-3-3-3-3|7-7-7-7-7-7-7-7|
A|-----------------------|-----------------------|---------------|---------------|
D|-----------------------|-----------------------|---------------|---------------|

1st Verse

G|---------------|---------------|---------------|-----------------------|
D|0-0-0-0-0-0-0-0|0-0-0-0-0-0-0-0|3-3-3-3-3-3-3-3|10-10-10-10-10-10-10-10|
A|---------------|---------------|---------------|-----------------------|
D|---------------|---------------|---------------|-----------------------|

G|-----------------------|-----------------------|---------------|---------------|
D|12-12-12-12-12-12-12-12|12-12-12-12-12-12-12-12|3-3-3-3-3-3-3-3|7-7-7-7-7-7-7-7|
A|-----------------------|-----------------------|---------------|---------------|   x2
D|-----------------------|-----------------------|---------------|---------------|

Pre-Chorus (Riff)

G|---------------|---------------|---------------|-----------------------|
D|0-0-0-0-0-0-0-0|0-0-0-0-0-0-0-0|3-3-3-3-3-3-3-3|10-10-10-10-10-10-10-10|
A|---------------|---------------|---------------|-----------------------|
D|---------------|---------------|---------------|-----------------------|

G|-----------------------|-----------------------|---------------|---------------|
D|12-12-12-12-12-12-12-12|12-12-12-12-12-12-12-12|3-3-3-3-3-3-3-3|7-7-7-7-7-7-7-7|
A|-----------------------|-----------------------|---------------|---------------|
D|-----------------------|-----------------------|---------------|---------------|

Chorus

G|---------------|---------------|---------------|---------------|
D|---------------|---------------|---------------|---------------|
A|1-1-1-1-1-1-1-1|1-1-1-1-1-1-1-1|3-3-3-3-3-3-3-3|3-3-3-3-3-3-3-3|
D|---------------|---------------|---------------|---------------|

G|---------------|---------------|---------------|---------------|
D|---------------|---------------|---------------|---------------|
A|4-4-4-4-4-4-4-4|4-4-4-4-4-4-4-4|5-5-5-5-5-5-5-5|5-5-5-5-5-5-5-5|
D|---------------|---------------|---------------|---------------|

G|---------------|---------------|---------------|---------------|
D|---------------|---------------|---------------|---------------|
A|7-7-7-7-7-7-7-7|7-7-7-7-7-7-7-7|4-4-4-4-4-4-4-4|4-4-4-4-4-4-4-4|
D|---------------|---------------|---------------|---------------|

Break

G|---------------|---------------|---------------|---------------|
D|---------------|---------------|---------------|---------------|
A|---------------|---------------|---------------|---------------|
D|12--12----12---|12\------------|12--12----12---|11\------------|

G|---------------|---------------|---------------|---------------|
D|---------------|---------------|---------------|---------------|
A|---------------|---------------|---------------|---------------|
D|10--10----10---|10\------------|9---9-----9----|9\-------------|
                                                                     x2
G|---------------|---------------|---------------|---------------|
D|---------------|---------------|---------------|---------------|
A|---------------|---------------|---------------|---------------|
D|8---8-----8----|8\-------------|7---7-----7----|7\-------------|

G|---------------|---------------|---------------|---------------|
D|---------------|---------------|---------------|---------------|
A|---------------|---------------|---------------|---------------|
D|7---7-----7----|7\-------------|7---7-----7----|7\-------------|

Pre-Verse (Riff 2)

G|----------------|----------------|----------------|----------------|
D|----------------|----------------|----------------|----------------|
A|----------------|----------------|----------------|----------------|
D|0-0-3-0-5-7-0-12|0-0-3-0-5-7-0-12|0-0-3-0-5-7-0-12|0-0-3-0-5-7-0-12|

2nd Verse

G|---------------|---------------|---------------|-----------------------|
D|0-0-0-0-0-0-0-0|0-0-0-0-0-0-0-0|3-3-3-3-3-3-3-3|10-10-10-10-10-10-10-10|
A|---------------|---------------|---------------|-----------------------|
D|---------------|---------------|---------------|-----------------------|

G|-----------------------|-----------------------|---------------|---------------|
D|12-12-12-12-12-12-12-12|12-12-12-12-12-12-12-12|3-3-3-3-3-3-3-3|7-7-7-7-7-7-7-7|
A|-----------------------|-----------------------|---------------|---------------|   x2
D|-----------------------|-----------------------|---------------|---------------|

Pre-Chorus (Riff)

G|---------------|---------------|---------------|-----------------------|
D|0-0-0-0-0-0-0-0|0-0-0-0-0-0-0-0|3-3-3-3-3-3-3-3|10-10-10-10-10-10-10-10|
A|---------------|---------------|---------------|-----------------------|
D|---------------|---------------|---------------|-----------------------|

G|-----------------------|-----------------------|---------------|---------------|
D|12-12-12-12-12-12-12-12|12-12-12-12-12-12-12-12|3-3-3-3-3-3-3-3|7-7-7-7-7-7-7-7|
A|-----------------------|-----------------------|---------------|---------------|
D|-----------------------|-----------------------|---------------|---------------|

Chorus

G|---------------|---------------|---------------|---------------|
D|---------------|---------------|---------------|---------------|
A|1-1-1-1-1-1-1-1|1-1-1-1-1-1-1-1|3-3-3-3-3-3-3-3|3-3-3-3-3-3-3-3|
D|---------------|---------------|---------------|---------------|

G|---------------|---------------|---------------|---------------|
D|---------------|---------------|---------------|---------------|
A|4-4-4-4-4-4-4-4|4-4-4-4-4-4-4-4|5-5-5-5-5-5-5-5|5-5-5-5-5-5-5-5|
D|---------------|---------------|---------------|---------------|

G|---------------|---------------|---------------|---------------|
D|---------------|---------------|---------------|---------------|
A|7-7-7-7-7-7-7-7|7-7-7-7-7-7-7-7|4-4-4-4-4-4-4-4|4-4-4-4-4-4-4-4|
D|---------------|---------------|---------------|---------------|

G|---------------|---------------|---------------|---------------|
D|---------------|---------------|---------------|---------------|
A|5-5-5-5-5-5-5-5|5-5-5-5-5-5-5-5|5-5-5-5-5-5-5-5|4-4-4-4-4-4-4-4|
D|---------------|---------------|---------------|---------------|

G|---------------|---------------|---------------|---------------|
D|---------------|---------------|---------------|---------------|
A|3-3-3-3-3-3-3-3|3-3-3-3-3-3-3-3|2-2-2-2-2-2-2-2|2-2-2-2-2-2-2-2|
D|---------------|---------------|---------------|---------------|

G|---------------|---------------|---------------|---------------|
D|---------------|---------------|---------------|--------0---3-5|
A|1-1-1-1-1-1-1-1|1-1-1-1-1-1-1-1|0-0-0-0-0-0-0-0|0-0-0-0---0----|
D|---------------|---------------|---------------|---------------|

G|---------------|---------------|---------------|---------------|
D|7-7-7-7-7-7-7-7|7-7-7-7-7-7-7-7|7-7-7-7-7-7-7-7|7-7-7-7-7-7-7-7|
A|---------------|---------------|---------------|---------------|
D|---------------|---------------|---------------|---------------|

Outro (Riff 2)

G|---------------|---------------|---------------|---------------|
D|---------------|---------------|---------------|---------------|
A|---------------|---------------|---------------|---------------|    x4
D|0-0-3-0-5-7-0-0|0-0-3-0-5-7-0-0|0-0-3-0-5-7-0-0|0-0-3-0-5-7-0-0|
Suggest correction
Give kudos to tab author, rate the tab!
1 2 3 4 5
comments
print report bad tab
guest
You may want to rate the tab now too:
select rating
Wanna post a correction for this tab? Suggest correction